Oops, an error
Loading. Please wait.

Black Sheep bass

version 2
version 2

Whole song

Interactive

by Metric
56,079 views 126 this week
4 commentsread comments
1 2 3 4 5
x 21
add to favorites
×
Save as Personal and add changes to this tab that will be seen only by you. Learn more ›
×
You can save this tab as Personal to edit and correct it or add notes. All changes will be seen only by you. Learn more »
launch autoscroll
font size
0
reset
guitar tuner
edit
Autoscroll
slow
fast
+/-
esc
set tempo
stop
Author
[Intro]

The rhythm of the intro is something like this,
it changes slightly as it progresses towards the verse.

G|---------------------------------------|
D|---------------------------------------|
A|----7---7---7---7---7---7--7--7--------|
E|--0-------0-------0---0---0------------|

you could also play this

G|------9---9---9---9---9---9---9--9-----|
D|---------------------------------------|
A|---7--------7-------7---7---7----------|
E|---------------------------------------|


[Verse]

G|-------------------------------------------------|
D|-------------------------------------------------|  x3
A|-------------------------------------------------|
E|--0--0--0--0--0--0--0--0--0--0--0--0--3-3-3-3----|

G|-------------------------------------------------|
D|-------------------------------------------------|
A|-------------------------------------------------|
E|--0--0--0--0--0--0--0--0--0--0--0--0--7-7-7-7----|


[Chorus]

G|-----------------------------------------|
D|---------9----------9--------------------|
A|---10-10---10-10-10---10-----------------|
E|---------------------------7-7-7-7-7-----|

G|---------------------------------------------|
D|-------9-------9-----------------------------|
A|---7-7---7-7-7---7--------------------9/10---|
E|--------------------10-10-10-10-10-10--------|


that is played twice and leads into this part which repeats

G|------------------------------------------------------------------|
D|------------------------------------------------------------------|
A|--------------------------------5-7-7-7-7-7-7-7-5-----------------|
E|--3-3-3-3-3-3-3-5-7-7-7-7-7-7-7-------------------7-7-7-7-7-7-7-5-|

from here it goes back to the intro riff, and then repeats the same verse riff and the 
chorus riff, the only real difference is that the second part of the chorus riff is 
more, then each note is picked once instead of repeated for the end part.



************************************

| /  Slide up

************************************

            
            
Suggest correction
Creating personal tab
Creating personal tab
You can edit any tab online and save it as your Personal.

You can edit, replace or remove any tab part or add personal notes – all changes will be seen only by you.

Personal tabs can be accessed anytime from any device, even offline.
Learn more »
comments
print report bad tab
4 comments total. Showing first comments.
0 reply
Jake900210 10 Jan 16, 2011 06:57 PM

What tuning? Standard?

+2 reply
Sephorangelus 162 Jan 22, 2011 04:16 AM

Yeah standard, if it was anything else I'd have changed the EADG at the left hand side.

0 reply
kibamaru1998 10 Jan 06, 2015 01:09 PM

Isn't it dropped D and an open D, it may sound stupid because when it's played in the scott pilgrim movie the bassist is playing an open note on the lowest string and it has a little animation that says D D D D D D D

guest
You may want to rate the tab now too:
select rating
Wanna post a correction for this tab? Suggest correction