Oops, an error
Loading. Please wait.

Black Sheep bass

version 1
version 1

Whole song

Interactive

by Metric
37,326 views 36 this week
1 commentread comment
1 2 3 4 5
x 5
add to favorites
×
Save as Personal and add changes to this tab that will be seen only by you. Learn more ›
×
You can save this tab as Personal to edit and correct it or add notes. All changes will be seen only by you. Learn more »
launch autoscroll
font size
0
reset
guitar tuner
edit
Autoscroll
slow
fast
+/-
esc
set tempo
stop
Difficulty
Hey! This is my first tab. it sounds pretty much right at the moment.

Intro:

G------------------------------------|
D------------------------------------|
A-----7-7-7-7-7-7-7-7-7-7-7-7-7-7-7--|
E----0-0-0-0-0-0-0-0-0-0-0-0-0-0-0---|

Verse:

G----------------------------------------------------------------|
D----------------------------------------------------------------|
A----------------------------------------------------------------|
E---0---0---0---0---0---0---0---0---0---0---0----3-3-3-3---------|x2
 Hello again, friend of a friend, I knew you when
Our common goal was waiting for the world to end


G----------------------------------------------------------------|
D----------------------------------------------------------------|
A----------------------------------------------------------------|
E---0---0---0---0---0---0---0---0---0---0---0----3-3-3-3---------|x2
Now that the truth is just a rule that you can bend
You crack the whip, shapeshifting trick, the past again

Chorus:

G----------------------------------------------------------------|
D----------------------------------------------------------------|
A--------------------------------7-7-7-7-7-7-7-7-5-5-5-5-5-5-5-5-|
E-3-3-3-3-3-3-3-3-7-7-7-7-7-7-7-7--------------------------------|x5
i'll send you my love on a wire
Lift you up, everytime, everyone, ooo, pulls away, ooo
From you

Lyrics:

Hello again, friend of a friend, I knew you when 
Our common goal was waiting for the world to end 
Now that the truth is just a rule that you can bend 
You crack the whip, shape-shift and trick the past again 

i'll send you my love on a wire 
Lift you up, everytime, everyone, ooo, pulls away, ooo 
From you

Got balls of steel, got an automobile, for a minimum wage 
Got real estate, I'm buying it all up in outerspace
Now that the truth is just a rule that you can bend 
You crack the whip, shape-shift and trick, the past again

I'll send you my love on a wire 
Lift you up, everytime, everyone, ooo, pulls a way, oo
Mechanical bull, the number one 
You'll take a ride from anyone, everyone wants a ride, pulls away, oooh from you 

Setup:

Intro
Verse
Chorus
Intro
Verse
Chorus(continue until the solo)
Solo(Play the chorus all the way till the end)

Hope this helps!

            
            
Suggest correction
Creating personal tab
Creating personal tab
You can edit any tab online and save it as your Personal.

You can edit, replace or remove any tab part or add personal notes – all changes will be seen only by you.

Personal tabs can be accessed anytime from any device, even offline.
Learn more »
comments
print report bad tab
1 comment total.
+2 reply
Tom_McDrum 10 Sep 25, 2010 03:15 PM

Hate to say this man, but listen carefully to the chorus. It does go up in pitch and has more melody to it.
Love the song and would love to play it.

guest
Wanna post a correction for this tab? Suggest correction