Oops, an error
Loading. Please wait.

Breathing Underwater bass

version 1
version 1

Whole song

  • Bass tab for Breathing Underwater with no amendmen... Show more

Interactive

by Metric
286 views 6 this week
no commentswrite comment
1 2 3 4 5
2 more votes to show rating
add to favorites
×
Save as Personal and add changes to this tab that will be seen only by you. Learn more ›
×
You can save this tab as Personal to edit and correct it or add notes. All changes will be seen only by you. Learn more »
launch autoscroll
font size
0
reset
guitar tuner
edit
Autoscroll
slow
fast
+/-
esc
set tempo
stop
Author
Difficulty
About this tab version
Bass tab for Breathing Underwater with no amendments. No other tabs for this on UG. Was this info helpful? Yes No
The tab itself is quite dry and uneventful. However, there are plenty of unused parts of this bassline which 
open themselves up nicely for little riffs that you may want to add in.

Will try to upload more tabs soon.

Enjoy!


Metric - Breathing Underwater


[Intro] - Come in with drums

G|-----------------|-----------------|-----------------|-----------------|
D|-----------------|-----------------|-----------------|-----------------|
A|-5-5-5-5-5-5-5-5-|-----------------|-2-2-2-2-2-2-2-2-|-----------------|    x2
E|-----------------|-2-2-2-2-2-2-2-2-|-----------------|-3-3-3-3-3-3-3-3-|
 

[Verse]

G|-----------------|-----------------|-----------------|-----------------|
D|-----------------|-----------------|-----------------|-----------------|
A|-5-5-5-5-5-5-5-5-|-----------------|-2-2-2-2-2-2-2-2-|-----------------|    x8
E|-----------------|-2-2-2-2-2-2-2-2-|-----------------|-3-3-3-3-3-3-3-3-|
 


[Chorus]

G|-----------------|-----------------|-----------------|-----------------|
D|-----------------|-----------------|-----------------|-----------------|
A|-----------------|-----------------|-2-2-2-2-2-2-2-2-|-5-5-5-5-5-5-5-5-|
E|-3-3-3-3-3-3-3-3-|-3-3-3-3-3-3-3-3-|-----------------|-----------------|

G|-----------------|-----------------|-----------------|-----------------|
D|-----------------|-----------------|-----------------|-----------------|
A|-0-0-0-0-0-0-0-0-|-0-0-0-0-0-0-0-0-|-2-2-2-2-2-2-2-2-|-2-2-2-2-2-2-2-2-|  x2
E|-----------------|-----------------|-----------------|-----------------|



G|---------|---------|---------|---------|
D|---------|---------|---------|---------|
A|---------|---------|-22-22-2-|-22-22-2-|  x2   (ignore last 2 before going into the verse)
E|-33-33-3-|-33-33-3-|---------|---------|


[Verse 2]

G|-----------------|-----------------|-----------------|-----------------|
D|-----------------|-----------------|-----------------|-----------------|
A|-5-5-5-5-5-5-5-5-|-----------------|-2-2-2-2-2-2-2-2-|-----------------|    x4
E|-----------------|-2-2-2-2-2-2-2-2-|-----------------|-3-3-3-3-3-3-3-3-|


[Chorus 2]

G|-----------------|-----------------|-----------------|-----------------|
D|-----------------|-----------------|-----------------|-----------------|
A|-----------------|-----------------|-2-2-2-2-2-2-2-2-|-5-5-5-5-5-5-5-5-|
E|-3-3-3-3-3-3-3-3-|-3-3-3-3-3-3-3-3-|-----------------|-----------------|

G|-----------------|-----------------|-----------------|-----------------|
D|-----------------|-----------------|-----------------|-----------------|
A|-0-0-0-0-0-0-0-0-|-0-0-0-0-0-0-0-0-|-2-2-2-2-2-2-2-2-|-2-2-2-2-2-2-2-2-|  x2
E|-----------------|-----------------|-----------------|-----------------|


G|---------|---------|---------|---------|
D|---------|---------|---------|---------|
A|---------|---------|-22-22-2-|-22-22-2-|  x2 
E|-33-33-3-|-33-33-3-|---------|---------|

[Bridge]

G|-----------------|-----------------|-----------------|-----------------|
D|-----------------|-----------------|-----------------|-----------------|
A|-5~--------------|-----------------|-2~--------------|-----------------|  x3
E|-----------------|-2~--------------|-----------------|-3~--------------|

[Outro] 

G|-----------------|-----------------|-----------------|-----------------|
D|-----------------|-----------------|-----------------|-----------------|
A|-----------------|-----------------|-2-2-2-2-2-2-2-2-|-5-5-5-5-5-5-5-5-|
E|-3-3-3-3-3-3-3-3-|-3-3-3-3-3-3-3-3-|-----------------|-----------------|

G|-----------------|-----------------|-----------------|-----------------|
D|-----------------|-----------------|-----------------|-----------------|
A|-0-0-0-0-0-0-0-0-|-0-0-0-0-0-0-0-0-|-2-2-2-2-2-2-2-2-|-2-2-2-2-2-2-2-2-|  x2
E|-----------------|-----------------|-----------------|-----------------|


Then:

G|-----------------|-----------------|-----------------|-----------------|-----------------|-----------------|
D|-----------------|-----------------|-----------------|-----------------|-----------------|-----------------|
A|-0-0-0-0-0-0-0-0-|-0-0-0-0-0-0-0-0-|-2-2-2-2-2-2-2-2-|-2-2-2-2-2-2-2-2-|-0-0-0-0-0-0-0-0-|-0-0-0-0-0-0-0-0-|
E|-----------------|-----------------|-----------------|-----------------|-----------------|-----------------|

G|-----------------|
D|-----------------|
A|-2~--------------|
E|-----------------|


************************************

Legend:

| ~   Vibrato


************************************

            
            
Suggest correction
Creating personal tab
Creating personal tab
You can edit any tab online and save it as your Personal.

You can edit, replace or remove any tab part or add personal notes – all changes will be seen only by you.

Personal tabs can be accessed anytime from any device, even offline.
Learn more »
Give kudos to tab author, rate the tab!
1 2 3 4 5
comments
print report bad tab
guest
You may want to rate the tab now too:
select rating
Wanna post a correction for this tab? Suggest correction