Oops, an error
Loading. Please wait.
We have an official Combat Baby tab made by UG professional guitarists. Check out the tab »
×
by Metric
1,764 views 1 this week
2 commentsread comments
1 2 3 4 5
2 more votes to show rating
add to favorites
×
Save as Personal and add changes to this tab that will be seen only by you. Learn more ›
×
You can save this tab as Personal to edit and correct it or add notes. All changes will be seen only by you. Learn more »
launch autoscroll
font size
0
reset
how to read this tab
guitar tuner
backing track
0:00
0:00
edit
Autoscroll
slow
fast
+/-
esc
set tempo
stop
Author
This is how I play it.. its a great song, Tuning: EADGBe, guitar starts on 0:03
Here are really short the notation signs:
\ : Slide down
/ : Slide up
E : eight note
Q : quater note
H : half note
W: whole note
- : dot to the note (Q- = dotted quater note)
x : muted note
y : break (Ey = eight break, Qy = quater break)

And here is the song. Enjoy.


1st Verse:

  E E E E E E E E | E E E E E E E E | E E E E E E E E | E E E E E E E E |
|-----------------|-----------------|-----------------|-----------------|
|-----------------|-----------------|-----------------|-----------------|
|-----------------|-----------------|-----------------|-----------------|    x2 (0:03-0:17)
|-----4-1-----6-2-|-----2-------2---|-----4-1-----6-2-|-----9-------9-6-|
|-2-2-----4-4-----|-0-0---4-0-0---4-|-2-2-----4-4-----|-7-7---7-7-7-----|
|-----------------|-----------------|-----------------|-----------------|


  E E E E E E E E | E E E E E E E E | E E E E E E E E | E E E E E E E E |
|-----------------|-----------------|-----------------|-----------------|
|-----------------|-----------------|-----------------|-----------------|
|-----------------|-----------------|-----------------|-----------------| (0:17-0:24)
|-----4-1-----6-2-|-----2-------2---|-----4-1-----6-2-|-----------------|
|-2-2-----4-4-----|-0-0---4-0-0---4-|-2-2-----4-4-----|-----4-------4---|
|-----------------|-----------------|-----------------|-2-2---2-2-2---2-|


  E E E E E E E E | E E E E E E E E | E E E E E E E E | E E E E E E E E |
|-----------------|-----------------|-----------------|-----------------|
|-----------------|-----------------|-----------------|-----------------|
|-----------------|-----------------|-----------------|-----------------|    (0:24-0:31)
|-----4-------6-2-|-----2-------2---|-----4-1-----3-0-|-----2-------2---|
|-2-2---2-4-4-----|-0-0---4-0-0---4-|-2-2-----1-1-----|-0-0---4-0-0---4-|
|-----------------|-----------------|-----------------|-----------------|


Chorus:

  E E E E E E E E | E E E E E E E E  | E E E E E E E E | E E E E Q- Ey  |
|-x-x-x-x-x-x-x-x-|-x-x-x-x-x-x-x-4--|-4-4-x-4-4-4-x-4-|-4-4-x-x-2------|
|-x-x-x-x-x-x-x-4-|-4-4-x-4-4-4-x-5--|-5-5-x-5-5-5-x-5-|-5-5-x-x-4------|
|-1-1-x-1-1-1-x-4-|-4-4-x-4-4-4-x-6--|-6-6-x-6-6-6-x-6-|-6-6-x-x-4------|
|-2-2-x-2-2-2-x-6-|-6-6-x-6-6-6-x-6--|-6-6-x-6-6-6-x-6-|-6-6-x-x-4------| x3 (0:31-0:51)
|-2-2-x-2-2-2-x-6-|-6-6-x-6-6-6-x-x--|-x-x-x-x-x-x-x-x-|-x-x-x-x-2------|
|-0-0-x-0-0-0-x-4-|-x-x-x-x-x-x-x-x--|-x-x-x-x-x-x-x-x-|-x-x-x-x-2------|

  E E E E E E E E | E E E E E E E E  | E E E E E E E E | E E Hy Qy     |
|-x-x-x-x-x-x-x-x-|-x-x-x-x-x-x-x-4--|-4-4-x-4-4-4-x-4-|-4-4\----------|
|-x-x-x-x-x-x-x-4-|-4-4-x-4-4-4-x-5--|-5-5-x-5-5-5-x-5-|-5-5\----------|
|-1-1-x-1-1-1-x-4-|-4-4-x-4-4-4-x-6--|-6-6-x-6-6-6-x-6-|-6-6\----------|
|-2-2-x-2-2-2-x-6-|-6-6-x-6-6-6-x-6--|-6-6-x-6-6-6-x-6-|-6-6\----------| (0:51-0:57)
|-2-2-x-2-2-2-x-6-|-6-6-x-6-6-6-x-x--|-x-x-x-x-x-x-x-x-|-x-x-----------|
|-0-0-x-0-0-0-x-4-|-x-x-x-x-x-x-x-x--|-x-x-x-x-x-x-x-x-|-x-x-----------|

2nd Verse:


  E E E E E E E E | E E E E E E E E | E E E E E E E E | E E E E E E E E |
|-----------------|-----------------|-----------------|-----------------|
|-----------------|-----------------|-----------------|-----------------|
|-----------------|-----------------|-----------------|-----------------|    x2 (0:58-1:12)
|-----4-1-----6-2-|-----2-------2---|-----4-1-----6-2-|-----9-------9-6-|
|-2-2-----4-4-----|-0-0---4-0-0---4-|-2-2-----4-4-----|-7-7---7-7-7-----|
|-----------------|-----------------|-----------------|-----------------|


  E E E E E E E E | E E E E E E E E | E E E E E E E E | E E E E E E E E |
|-----------------|-----------------|-----------------|-----------------|
|-----------------|-----------------|-----------------|-----------------|
|-----------------|-----------------|-----------------|-----------------| (1:12-1:19)
|-----4-1-----6-2-|-----2-------2---|-----4-1-----6-2-|-----------------|
|-2-2-----4-4-----|-0-0---4-0-0---4-|-2-2-----4-4-----|-----4-------4---|
|-----------------|-----------------|-----------------|-2-2---2-2-2---2-|


  E E E E E E E E | E E E E E E E E | E E E E E E E E | E E E E E E E E |
|-----------------|-----------------|-----------------|-----------------|
|-----------------|-----------------|-----------------|-----------------|
|-----------------|-----------------|-----------------|-----------------|    (1:19-1:26)
|-----4-------6-2-|-----2-------2---|-----4-1-----3-0-|-----2-------2---|
|-2-2---2-4-4-----|-0-0---4-0-0---4-|-2-2-----1-1-----|-0-0---4-0-0---4-|
|-----------------|-----------------|-----------------|-----------------|


Chorus:

  E E E E E E E E | E E E E E E E E  | E E E E E E E E | E E E E Q- Ey  |
|-x-x-x-x-x-x-x-x-|-x-x-x-x-x-x-x-4--|-4-4-x-4-4-4-x-4-|-4-4-x-x-2------|
|-x-x-x-x-x-x-x-4-|-4-4-x-4-4-4-x-5--|-5-5-x-5-5-5-x-5-|-5-5-x-x-4------|
|-1-1-x-1-1-1-x-4-|-4-4-x-4-4-4-x-6--|-6-6-x-6-6-6-x-6-|-6-6-x-x-4------|
|-2-2-x-2-2-2-x-6-|-6-6-x-6-6-6-x-6--|-6-6-x-6-6-6-x-6-|-6-6-x-x-4------| x3 (1:26-1:47)
|-2-2-x-2-2-2-x-6-|-6-6-x-6-6-6-x-x--|-x-x-x-x-x-x-x-x-|-x-x-x-x-2------|
|-0-0-x-0-0-0-x-4-|-x-x-x-x-x-x-x-x--|-x-x-x-x-x-x-x-x-|-x-x-x-x-2------|

  E E E E E E E E | E E E E E E E E  | E E E E E E E E | E E Hy Qy     |
|-x-x-x-x-x-x-x-x-|-x-x-x-x-x-x-x-4--|-4-4-x-4-4-4-x-4-|-4-4\----------|
|-x-x-x-x-x-x-x-4-|-4-4-x-4-4-4-x-5--|-5-5-x-5-5-5-x-5-|-5-5\----------|
|-1-1-x-1-1-1-x-4-|-4-4-x-4-4-4-x-6--|-6-6-x-6-6-6-x-6-|-6-6\----------|
|-2-2-x-2-2-2-x-6-|-6-6-x-6-6-6-x-6--|-6-6-x-6-6-6-x-6-|-6-6\----------|  (1:47-1:52)
|-2-2-x-2-2-2-x-6-|-6-6-x-6-6-6-x-x--|-x-x-x-x-x-x-x-x-|-x-x-----------|
|-0-0-x-0-0-0-x-4-|-x-x-x-x-x-x-x-x--|-x-x-x-x-x-x-x-x-|-x-x-----------|


Breakdown:

  E  E  Q  E  E  Q  | E  E  Q  E  E  E  E  | E  E  Q  E  E  Q  | E  E  Q  E  E  E  E  |
|-------------------|----------------------|-------------------|----------------------|
|-------------------|----------------------|-------------------|----------------------|
|-------------------|----------------------|-------------------|----------------------|
|-------11-------11-|-------11-------11----|-------13-------13-|-------13-------13----|(1:54-2:00)
|-11-11----11-11----|-11-11----11-11----11-|-12-12----12-12----|-12-12----12-12----12-|
|-------------------|----------------------|-------------------|----------------------|

  E  E  Q  E  E  Q  | E  E  Q  E  E  E  E  | E  E  Q  E  E  Q  | E Ey E Ey E Ey  E Ey |
|-------------------|----------------------|-------------------|----------------------|
|-------------------|----------------------|-------------------|----------------------|
|-------------------|----------------------|-------------------|----------------------|
|-------14-------14-|-------14-------14----|-------13-------13-|-13---13---13---13\---|(2:00-2:07)
|-13-13----13-13----|-13-13----13-13----13-|-12-12----12-12----|-12---12---12---12\---|
|-------------------|----------------------|-------------------|----------------------|


  E  E  Q  E  E  Q  | E  E  Q  E  E  E  E  | E  E  Q  E  E  Q  | E  E  Q  E  E  E  E  |
|-------------------|----------------------|-------------------|----------------------|
|-------------------|----------------------|-------------------|----------------------|
|-------------------|----------------------|-------------------|----------------------|
|-------11-------11-|-------11-------11----|-------13-------13-|-------13-------13----|(2:07-2:14)
|-11-11----11-11----|-11-11----11-11----11-|-12-12----12-12----|-12-12----12-12----12-|
|-------------------|----------------------|-------------------|----------------------|

  E  E  Q  E  E  Q  | E  E  Q  E  E  E  E  | E  E  Q  E  E  Q  | E Ey E Ey E Ey  E Ey |
|-------------------|----------------------|-------------------|----------------------|
|-------------------|----------------------|-------------------|----------------------|
|-------------------|----------------------|-------------------|----------------------|
|-------14-------14-|-------14-------14----|-------13-------13-|-13---13---13---13\---|(2:14-2:21)
|-13-13----13-13----|-13-13----13-13----13-|-12-12----12-12----|-12---12---12---12\---|
|-------------------|----------------------|-------------------|----------------------|

  E  E  Q  E  E  Q  | E  E  Q  E  E  E  E  | E  E  Q  E  E  Q  | E  E  Q  E  E  E  E  |
|-------------------|----------------------|-------------------|----------------------|
|-------------------|----------------------|-------------------|----------------------|
|-------9--------9--|-------9--------9-----|-------8--------8--|-------8--------8-----|
|-------11-------11-|-------11-------11----|-------13-------13-|-------13-------13----|(2:21-2:28)
|-11-11----11-11----|-11-11----11-11----11-|-12-12----12-12----|-12-12----12-12----12-|
|-------------------|----------------------|-------------------|----------------------|

  E  E  Q  E  E  Q  | E  E  Q  E  E  E  E  | E  E  Q  E  E  Q  | E Hy Qy Ey  |
|-------------------|----------------------|-------------------|-------------|
|-------------------|----------------------|-------------------|-------------|
|-------9--------9--|-------9--------9-----|-------8--------8--|-8-----------|
|-------14-------14-|-------14-------14----|-------13-------13-|-13----------|   (2:28-2:34)
|-13-13----13-13----|-13-13----13-13----13-|-12-12----12-12----|-12----------|
|-------------------|----------------------|-------------------|-------------|

  E E E E E E E E | E E E E E E E E | E E E E E E E E | E E E E E E E E   |
|-----------------|-----------------|-----------------|-------------------|
|-----------------|-----------------|-----------------|-------------------|
|-----------------|-----------------|-----------------|-------------------|
|-----------------|-----------------|-----------------|-------------------|      (2:35-2:42)
|-7-7-7-7-7-7-7-7-|-6-6-6-6-6-6-6-6-|-4-4-4-4-4-4-4-4-|-4-4-4-4-2-2-2-2-/-|
|-----------------|-----------------|-----------------|-------------------|

  E E E E E E E E | E E E E E E E E | E E E E E E E E | E E E E H        |
|-----------------|-----------------|-----------------|------------------|
|-----------------|-----------------|-----------------|------------------|
|-----------------|-----------------|-----------------|------------------|
|-----------------|-----------------|-----------------|------------------|      (2:42-2:49)
|-7-7-7-7-7-7-7-7-|-6-6-6-6-6-6-6-6-|-4-4-4-4-4-4-4-4-|-4-4-4-4-2--------|
|-----------------|-----------------|-----------------|------------------|


Chorus:

  E E E E E E E E | E E E E E E E E  | E E E E E E E E | E E E E Q- Ey  |
|-x-x-x-x-x-x-x-x-|-x-x-x-x-x-x-x-4--|-4-4-x-4-4-4-x-4-|-4-4-x-x-2------|
|-x-x-x-x-x-x-x-4-|-4-4-x-4-4-4-x-5--|-5-5-x-5-5-5-x-5-|-5-5-x-x-4------|
|-1-1-x-1-1-1-x-4-|-4-4-x-4-4-4-x-6--|-6-6-x-6-6-6-x-6-|-6-6-x-x-4------|
|-2-2-x-2-2-2-x-6-|-6-6-x-6-6-6-x-6--|-6-6-x-6-6-6-x-6-|-6-6-x-x-4------| x3 (2:49-3:10)
|-2-2-x-2-2-2-x-6-|-6-6-x-6-6-6-x-x--|-x-x-x-x-x-x-x-x-|-x-x-x-x-2------|
|-0-0-x-0-0-0-x-4-|-x-x-x-x-x-x-x-x--|-x-x-x-x-x-x-x-x-|-x-x-x-x-2------|

  E E E E E E E E | E E E E E E E E  | E E E E E E E E | E E Hy Qy     |
|-x-x-x-x-x-x-x-x-|-x-x-x-x-x-x-x-4--|-4-4-x-4-4-4-x-4-|-4-4\----------|
|-x-x-x-x-x-x-x-4-|-4-4-x-4-4-4-x-5--|-5-5-x-5-5-5-x-5-|-5-5\----------|
|-1-1-x-1-1-1-x-4-|-4-4-x-4-4-4-x-6--|-6-6-x-6-6-6-x-6-|-6-6\----------|
|-2-2-x-2-2-2-x-6-|-6-6-x-6-6-6-x-6--|-6-6-x-6-6-6-x-6-|-6-6\----------|  (3:10-3:15)
|-2-2-x-2-2-2-x-6-|-6-6-x-6-6-6-x-x--|-x-x-x-x-x-x-x-x-|-x-x-----------|
|-0-0-x-0-0-0-x-4-|-x-x-x-x-x-x-x-x--|-x-x-x-x-x-x-x-x-|-x-x-----------|

Outro:

  E E E E E E E E | E E E E E E E E | E E E E E E E E | W               |
|-----------------|-----------------|-----------------|-0---------------|
|-----------------|-----------------|-----------------|-0---------------|
|-----------------|-----------------|-----------------|-1---------------|
|-----4-1-----6-2-|-----2-------2---|-----4-1-----6-2-|-2---------------|   (3:17-3:30)
|-2-2-----4-4-----|-0-0---4-0-0---4-|-2-2-----4-4-----|-2---------------|
|-----------------|-----------------|-----------------|-0---------------|


Well that's it I hope you had fun and if there is any corrections please correct under comments.
Thank you. C-Minor.

            
            
Suggest correction
Creating personal tab
Creating personal tab
You can edit any tab online and save it as your Personal.

You can edit, replace or remove any tab part or add personal notes – all changes will be seen only by you.

Personal tabs can be accessed anytime from any device, even offline.
Learn more »
Give kudos to tab author, rate the tab!
1 2 3 4 5
comments
print report bad tab
2 comments total.
0 reply
G5Man 10 Apr 26, 2009 10:37 AM

Dude,

Good effort and everything. You seemed to take a lot of time, but this is just not remotely close to correct. See the first tab for something close to correct.

0 reply
C-Minor 51 Jun 01, 2009 04:17 AM

dude.. they are almost the same.. only difference is the that mine is
D------4-1-
A--2-2-----

while in vers one its

D-----4------
A-2-2---2----

And honestly i played this like 100 times to the song it sounds perfectly alright,.. just try it.. everything matches perfectly, while i dont think the B on the 2+ in the first tab matches.

guest
You may want to rate the tab now too:
select rating
Wanna post a correction for this tab? Suggest correction