Oops, an error
Loading. Please wait.

Dead Disco bass

version 3
version 3

Whole song

Interactive

by Metric
2,575 views 1 this week
1 commentread comment
1 2 3 4 5
2 more votes to show rating
add to favorites
×
Save as Personal and add changes to this tab that will be seen only by you. Learn more ›
×
You can save this tab as Personal to edit and correct it or add notes. All changes will be seen only by you. Learn more »
launch autoscroll
font size
0
reset
guitar tuner
edit
Autoscroll
slow
fast
+/-
esc
set tempo
stop
Author
Difficulty
Intro/Verse
there are a few ways to play the song you could either play:
G--------------------------------------------------------------|
D----------------------------------------------------------6---|
A-3-3--3-3-3--3/6-6--6-6-6--6/11-11--11-11--11/8-8--8--6-8---8-|
E--------------------------------------------------------------|
or if you're lazy:
G-----------------------------------------------------------|
D-------------------------------6-6--6-6-6--6/----------6---|
A----------------6-6--6-6-6--6/----------------8-8--6-8---8-|
E-8-8--8-8-8--8/--------------------------------------------|

the chorus can be either:
G-----------------------------------------------------------------|
D-----------------------------------------------------------------|
A-----------------8-8-8-8-8-8-8-8-6-6-6-6-6-6-6-6-8-8-8-8-8-8-8-8-|
E-8-8-8-8-8-8-8-8-------------------------------------------------|

or
G-----------------------------------------------------------------|
D-----------------------------------------------------------------|
A-3-3-3-3-3-3-3-3-8-8-8-8-8-8-8-8-6-6-6-6-6-6-6-6-8-8-8-8-8-8-8-8-|
E-----------------------------------------------------------------|

either way of playing works 
enjoy!

            
            
Suggest correction
Creating personal tab
Creating personal tab
You can edit any tab online and save it as your Personal.

You can edit, replace or remove any tab part or add personal notes – all changes will be seen only by you.

Personal tabs can be accessed anytime from any device, even offline.
Learn more »
Give kudos to tab author, rate the tab!
1 2 3 4 5
comments
print report bad tab
1 comment total.
0 reply
micturion 10 Nov 13, 2013 08:30 AM

Chorus:

G |-----5-----5---5-----A-----A---A|-----8-----8---8-----A----------| A = 10th fret
D |--------------------------------|--------------------------------|
A |-3-3---3-3---3---8-8---8-8---8--|-6-6---6-6---6---8-8-----1---1-3|
E |--------------------------------|---------------------------3----|


Somehow nobody seems to hear the octaves. Very disco!

guest
You may want to rate the tab now too:
select rating
Wanna post a correction for this tab? Suggest correction