Oops, an error
Loading. Please wait.

Gold Guns Girls tab

version 1
version 1

Whole song

by Metric
47,021 views 9 this week
1 commentread comment
1 2 3 4 5
x 14
add to favorites
×
Save as Personal and add changes to this tab that will be seen only by you. Learn more ›
×
You can save this tab as Personal to edit and correct it or add notes. All changes will be seen only by you. Learn more »
launch autoscroll
font size
0
reset
how to read this tab
guitar tuner
edit
Autoscroll
slow
fast
+/-
esc
set tempo
stop
Author
#----------------------------------PLEASE NOTE---------------------------------#
#This file is the author's own work and represents their interpretation of the #
#song. You may only use this file for private study, scholarship, or research. #
#------------------------------------------------------------------------------##


Artist: Metric
Song: Gold Guns Girls
Tabbed by: Manthony
03.04.09



TUNING: (E A D G B E)



CHORD DIAGRAM
-------------------------------------------------

 F                G                Am                     
                                  
 1 3 3 2 1 1      3 5 5 4 3 3      5 7 7 5 5 5              



-------------------------------------------------



Intro Riffage //

.............................

E||---------------||
B||---------------||
G||---------------|| REPEAT
D||---------------||
A||-0-0-12-12--12-||
E||---------------||

.............................

 F / G / Am


All the gold
And the guns
In the world
Could it get you off

All the gold
And the guns
And the girls
Could it get you off

All the boys
All the choices
In the world


E||----------------------|-----------------------|------------------------------------------------||
B||----------------------|-----------------------|------------------------------------------------||
G||----------------------|-----------------------|------------------------------------------------||
D||----------------------|-----------------------|------------------------------------------------||
A||0h3-3-3-3-0-0h3-3-3-3-|-3h5-5-5-5-3-3h5-5-5-5-|-5h7-7-7-7-5-5h7-7-7-7--5-5h7-7-7-7--5-5h7-7-7-7||
E||----------------------|-----------------------|------------------------------------------------||



................................................................

F
I remember when you were gambling to win
G
Everybody else said better luck next time
F
I don't wanna go where the bad girls went
G
I just wanna be your friend, is it never gonna be enough


E||---------------||
B||---------------||
G||---------------|| 
D||---------------||
A||-0-0-12-12--12-||
E||---------------||

Is it ever gonna be enough

................................................................

F / G / Am


All the lace
And the skin
In the shop
Could it get you off

All the toys
And the tools
In the box
Could it get you off

All the noise
All the voices
Never stop


E||----------------------|-----------------------|------------------------------------------------||
B||----------------------|-----------------------|------------------------------------------------||
G||----------------------|-----------------------|------------------------------------------------||
D||----------------------|-----------------------|------------------------------------------------||
A||0h3-3-3-3-0-0h3-3-3-3-|-3h5-5-5-5-3-3h5-5-5-5-|-5h7-7-7-7-5-5h7-7-7-7--5-5h7-7-7-7--5-5h7-7-7-7||
E||----------------------|-----------------------|------------------------------------------------||


................................................................

F
I remember when we were gambling to win
G
Everybody else said better luck next time
F
I don't wanna go where the bad girls went
G
I just wanna be your friend, while you're giving me a hard time


E||---------------||
B||---------------||
G||---------------|| 
D||---------------||
A||-0-0-12-12--12-||
E||---------------||

Is it ever gonna be enough

................................................................




#----------------------------------PLEASE NOTE---------------------------------#
#This file is the author's own work and represents their interpretation of the #
#song. You may only use this file for private study, scholarship, or research. #
#------------------------------------------------------------------------------##




            
            
Suggest correction
Creating personal tab
Creating personal tab
You can edit any tab online and save it as your Personal.

You can edit, replace or remove any tab part or add personal notes – all changes will be seen only by you.

Personal tabs can be accessed anytime from any device, even offline.
Learn more »
comments
print report bad tab
1 comment total.
+2 reply
jryden 10 Jan 26, 2015 09:03 PM

I hear this for the main riff:

E||------------------------|-------------------------|------------------------------------------------||
B||------------------------|-------------------------|------------------------------------------------||
G||------------------------|-------------------------|------------------------------------------------||
D||----3-3-3-3-----3-3-3-3-|-----5-5-5-5-----5-5-5-5-|-----7-7-7-7-----7-7-7-7-----7-7-7-7-----7-7-7-7||
A||0-0---------0-0---------|-0-0---------0-0---------|-0-0---------0-0---------0-0---------0-0--------||
E||------------------------|-------------------------|------------------------------------------------||

guest
You may want to rate the tab now too:
select rating
Wanna post a correction for this tab? Suggest correction