Oops, an error
Loading. Please wait.

Help Im Alive tab

version 3
version 3

Whole song

Interactive

by Metric
34,827 views 18 this week
1 commentread comment
1 2 3 4 5
x 5
add to favorites
×
Save as Personal and add changes to this tab that will be seen only by you. Learn more ›
×
You can save this tab as Personal to edit and correct it or add notes. All changes will be seen only by you. Learn more »
launch autoscroll
font size
0
reset
how to read this tab
guitar tuner
backing track
0:00
0:00
edit
Autoscroll
slow
fast
+/-
esc
set tempo
stop
Author
#----------------------------------PLEASE NOTE---------------------------------#
#This file is the author's own work and represents their interpretation of the #
#song. You may only use this file for private study, scholarship, or research. #
#------------------------------------------------------------------------------##


Artist: Metric
Song: Help I'm Alive
Tabbed by: Manthony
03.04.14


TUNING: (E A D G B E)


CHORD DIAGRAM

----------------------------------------------------------------

 G5                A#              Fsus2            C                   
                                  
 x x 17 19 20 x    6 8 8 7 6 6     x 8 10 10 8 8    8 10 10 9 8 8

 
D#sus2 

 x 6 8 8 6 6

       
----------------------------------------------------------------




*this is played through the entire first verse
E||------||
B||--20--||
G||--19--|| 
D||--17--||
A||------||
E||------||
                            

I tremble
They're gonna eat me alive
If I stumble
They're gonna eat me alive


E||-------------------3------------------------||
B||-------------------3------------------------||
G||-------------------3------------------------|| 
D||-------------------5------------------------||
A||-------------------5------------------------||
E||-------------------3------------------------||
Can you hear my heart beating like a hammer?
                      Beating like a hammer?



E||-----------------------------------------------------------||
B||-----------------------------------------------------------||
G||-----------------------------------------------------------|| 
D||--8-8-8-8-8-8-8-8-7-7-7-7-8-8-8-8-8-8-8-8-8-8-8-8-8-8-8-8--||
A||-----------------------------------------------------------||
E||-----------------------------------------------------------||
Help, I'm alive, my heart keeps beating like a hammer


E||-----------------------------------------------------------------||
B||-----------------------------------------------------------------||
G||-----------------------------------------------------------------|| 
D||--8-8-8-8-7-7-7-7-7-7-7-7-7-7-7-8-8-8-8-8-8-8-8-8-8-8-8-8-8-8-8--||
A||-----------------------------------------------------------------||
E||-----------------------------------------------------------------||
Hard to be soft         Tough to be tender


E||-----------------------------------------------------------||
B||-----------------------------------------------------------||
G||-----------------------------------------------------------|| 
D||--8-8-8-8-8-8-8-8-7-7-7-7-8-8-8-8-8-8-8-8-8-8-8-8-8-8-8-8--||
A||-----------------------------------------------------------||
E||-----------------------------------------------------------||
Come take my pulse, the pace is on a runaway train


E||---------------------------------3--||
B||---------------------------------3--||
G||---------------------------------3--|| 
D||--8-8-8-8-8-8-8-8-7-7-7-7--------5--||
A||---------------------------------5--||
E||---------------------------------3--||
Help, I'm alive, my heart keeps     beating like a hammer
                                    Beating like a hammer


..........................................................................



E||-6-6-6-6---8---8---8--8--8--8--8--6--||
B||-6-6-6-6---8---8---8--8--8--8--8--6--||
G||-7-7-7-7--10---9---9--9--9--9--9--8--|| 
D||-8-8-8-8--10--10--10-10-10-10-10--8--||
A||-8-8-8-8---8--10--10-10-10-10-10--6--||
E||-6-6-6-6-------8---8--8--8--8--8-----||

If you're still alive
My regrets are few
If my life is mine
What shouldn't I do?
I get wherever I'm going
I get whatever I need
While my blood's still flowing


E||-------------------3------------------------||
B||-------------------3------------------------||
G||-------------------3------------------------|| 
D||-------------------5------------------------||
A||-------------------5------------------------||
E||-------------------3------------------------||

And my heart still    beats...
                      Beating like a hammer
                      Beating like a hammer


............................................................................




E||-----------------------------------------------------------||
B||-----------------------------------------------------------||
G||-----------------------------------------------------------|| 
D||--8-8-8-8-8-8-8-8-7-7-7-7-8-8-8-8-8-8-8-8-8-8-8-8-8-8-8-8--||
A||-----------------------------------------------------------||
E||-----------------------------------------------------------||
Help, I'm alive, my heart keeps beating like a hammer


E||-----------------------------------------------------------------||
B||-----------------------------------------------------------------||
G||-----------------------------------------------------------------|| 
D||--8-8-8-8-7-7-7-7-7-7-7-7-7-7-7-8-8-8-8-8-8-8-8-8-8-8-8-8-8-8-8--||
A||-----------------------------------------------------------------||
E||-----------------------------------------------------------------||
Hard to be soft         Tough to be tender


E||-----------------------------------------------------------||
B||-----------------------------------------------------------||
G||-----------------------------------------------------------|| 
D||--8-8-8-8-8-8-8-8-7-7-7-7-8-8-8-8-8-8-8-8-8-8-8-8-8-8-8-8--||
A||-----------------------------------------------------------||
E||-----------------------------------------------------------||
Come take my pulse, the pace is on a runaway train


E||---------------------------------3--||
B||---------------------------------3--||
G||---------------------------------3--|| 
D||--8-8-8-8-8-8-8-8-7-7-7-7--------5--||
A||---------------------------------5--||
E||---------------------------------3--||
Help, I'm alive, my heart keeps     beating like a hammer
                                    Beating like a hammer



..........................................................................



E||-6-6-6-6---8---8---8--8--8--8--8--6--||
B||-6-6-6-6---8---8---8--8--8--8--8--6--||
G||-7-7-7-7--10---9---9--9--9--9--9--8--|| 
D||-8-8-8-8--10--10--10-10-10-10-10--8--||
A||-8-8-8-8---8--10--10-10-10-10-10--6--||
E||-6-6-6-6-------8---8--8--8--8--8-----||

If you're still alive
My regrets are few
If my life is mine
What shouldn't I do?
I get wherever I'm going
I get whatever I need
While my blood's still flowing


E||-------------------3------------------------||
B||-------------------3------------------------||
G||-------------------3------------------------|| 
D||-------------------5------------------------||
A||-------------------5------------------------||
E||-------------------3------------------------||

And my heart still    beats...
                      Beating like a hammer
                      Beating like a hammer


............................................................................









#----------------------------------PLEASE NOTE---------------------------------#
#This file is the author's own work and represents their interpretation of the #
#song. You may only use this file for private study, scholarship, or research. #
#------------------------------------------------------------------------------##


            
            
Suggest correction
Creating personal tab
Creating personal tab
You can edit any tab online and save it as your Personal.

You can edit, replace or remove any tab part or add personal notes – all changes will be seen only by you.

Personal tabs can be accessed anytime from any device, even offline.
Learn more »
comments
print report bad tab
1 comment total.
0 reply
EternalLife18 10 Sep 22, 2009 03:23 AM

shit nice work dude, spot on :)

guest
You may want to rate the tab now too:
select rating
Wanna post a correction for this tab? Suggest correction