Oops, an error
Loading. Please wait.

Love Is A Place tab

version 1
version 1

Whole song

Interactive

by Metric
13,084 views 6 this week
1 commentread comment
1 2 3 4 5
x 7
add to favorites
×
Save as Personal and add changes to this tab that will be seen only by you. Learn more ›
×
You can save this tab as Personal to edit and correct it or add notes. All changes will be seen only by you. Learn more »
launch autoscroll
font size
0
reset
how to read this tab
guitar tuner
edit
Autoscroll
slow
fast
+/-
esc
set tempo
stop
Author
Difficulty
Intro:
e|--7-7-7-7--|
B|--7-7-7-7--|
G|--8-8-8-8--|
D|--9-9-9-9--|  X4
A|--9-9-9-9--|
E|--7-7-7-7--|

Verse 1:
"There's spring in the air"
e|--7-7-7-7--7-7-7-7--4-4-4-4--4-2-2-2--|
B|--7-7-7-7--7-7-7-7--4-4-4-4--4-2-2-2--|
G|--8-8-8-8--8-8-8-8--4-4-4-4--4-3-3-3--|
D|--9-9-9-9--9-9-9-9--6-6-6-6--6-4-4-4--| X2
A|--9-9-9-9--9-9-9-9--6-6-6-6--6-4-4-4--|
E|--7-7-7-7--7-7-7-7--4-4-4-4--4-2-2-2--|

"Wind is a breeze'
e|--7-7-7-7--7-7-7-7--6-6-6-6--6-6-6-6--7-7-7-7--7-7-7-7--7-7-7-7--7-7-7-7-|
B|--7-7-7-7--7-7-7-7--8-8-8-8--8-8-8-8--9-9-9-9--9-9-9-9--7-7-7-7--7-7-7-7-|
G|--8-8-8-8--8-8-8-8--8-8-8-8--8-8-8-8--9-9-9-9--9-9-9-9--7-7-7-7--7-7-7-7-|
D|--9-9-9-9--9-9-9-9--8-8-8-8--8-8-8-8--9-9-9-9--9-9-9-9--9-9-9-9--9-9-9-9-|
A|--9-9-9-9--9-9-9-9--6-6-6-6--6-6-6-6--7-7-7-7--7-7-7-7--9-9-9-9--9-9-9-9-|
E|--7-7-7-7--7-7-7-7--------------------------------------7-7-7-7--7-7-7-7-|

Chorus:
"What's holding up her face?"
e|--7-7-7-7--7-7-7-7--7-7-7-7--7-7-7-7--7-7-7-7--7-7-7-7--|
B|--7-7-7-7--7-7-7-7--8-8-8-8--8-8-8-8--8-8-8-8--8-8-8-8--|
G|--7-7-7-7--7-7-7-7--9-9-9-9--9-9-9-9--9-9-9-9--9-9-9-9--|
D|--9-9-9-9--9-9-9-9--9-9-9-9--9-9-9-9--9-9-9-9--9-9-9-9--|
A|--9-9-9-9--9-9-9-9--7-7-7-7--7-7-7-7--7-7-7-7--7-7-7-7--|
E|--7-7-7-7--7-7-7-7--------------------------------------|

"blue skies"
e|--5-5-5-5--5-5-5-5--5-5-5-5--5-5-5-5--|
B|--7-7-7-7--7-7-7-7--7-7-7-7--7-7-7-7--|
G|--7-7-7-7--7-7-7-7--7-7-7-7--7-7-7-7--|
D|--7-7-7-7--7-7-7-7--7-7-7-7--7-7-7-7--|
A|--5-5-5-5--5-5-5-5--5-5-5-5--5-5-5-5--|
E|--------------------------------------|

"Passageways to windows"
e|--9--9--9--9---9--9--9--9---10-10-10-10--10-10-10-10--|
B|--11-11-11-11--11-11-11-11--10-10-10-10--10-10-10-10--|
G|--11-11-11-11--11-11-11-11--11-11-11-11--11-11-11-11--|
D|--11-11-11-11--11-11-11-11--12-12-12-12--12-12-12-12--|
A|--9--9--9--9---9--9--9--9---12-12-12-12--12-12-12-12--|
E|----------------------------10-10-10-10--10-10-10-10--|

"That don't close"
e|--7-7-7-7--7-7-7-7--10-10-10-10--10-10-10-10--10-10-10-10--10-10-10-10--|
B|--7-7-7-7--7-7-7-7--10-10-10-10--10-10-10-10--10-10-10-10--10-10-10-10--|
G|--8-8-8-8--8-8-8-8--11-11-11-11--11-11-11-11--11-11-11-11--11-11-11-11--|
D|--9-9-9-9--9-9-9-9--12-12-12-12--12-12-12-12--12-12-12-12--12-12-12-12--|
A|--9-9-9-9--9-9-9-9--12-12-12-12--12-12-12-12--12-12-12-12--12-12-12-12--|
E|--7-7-7-7--7-7-7-7--10-10-10-10--10-10-10-10--10-10-10-10--10-10-10-10--|

Verse 2: (just a key change. everything moves up 3 semitones)
"Where do you live?"
e|--10-10-10-10--10-10-10-10--7-7-7-7--7-5-5-5--|
B|--10-10-10-10--10-10-10-10--7-7-7-7--7-5-5-5--|
G|--11-11-11-11--11-11-11-11--7-7-7-7--7-6-6-6--|
D|--12-12-12-12--12-12-12-12--9-9-9-9--9-7-7-7--| X2
A|--12-12-12-12--12-12-12-12--9-9-9-9--9-7-7-7--|
E|--10-10-10-10--10-10-10-10--7-7-7-7--7-5-5-5--|

"Where are you from?"
e|--10-10-10-10--10-10-10-10--9--9--9--9---9--9--9--9---10-10-10-10--|
B|--10-10-10-10--10-10-10-10--11-11-11-11--11-11-11-11--12-12-12-12--|
G|--11-11-11-11--11-11-11-11--11-11-11-11--11-11-11-11--12-12-12-12--|
D|--12-12-12-12--12-12-12-12--11-11-11-11--11-11-11-11--12-12-12-12--|
A|--12-12-12-12--12-12-12-12--9--9--9--9---9--9--9--9---10-10-10-10--|
E|--10-10-10-10--10-10-10-10-----------------------------------------|

"Ask anyone"
e|--10-10-10-10--10-10-10-10--10-10-10-10--|
B|--12-12-12-12--10-10-10-10--10-10-10-10--|
G|--12-12-12-12--10-10-10-10--10-10-10-10--|
D|--12-12-12-12--12-12-12-12--12-12-12-12--|
A|--10-10-10-10--12-12-12-12--12-12-12-12--|
E|---------------10-10-10-10--10-10-10-10--|

Chorus:
"What's holding up her face?"
e|--10-10-10-10--10-10-10-10--10-10-10-10--10-10-10-10--|
B|--10-10-10-10--10-10-10-10--11-11-11-11--11-11-11-11--|
G|--10-10-10-10--10-10-10-10--12-12-12-12--12-12-12-12--|
D|--12-12-12-12--12-12-12-12--12-12-12-12--12-12-12-12--|
A|--12-12-12-12--12-12-12-12--10-10-10-10--10-10-10-10--|
E|--10-10-10-10--10-10-10-10----------------------------|

e|--10-10-10-10--10-10-10-10--|
B|--11-11-11-11--11-11-11-11--|
G|--12-12-12-12--12-12-12-12--|
D|--12-12-12-12--12-12-12-12--|
A|--10-10-10-10--10-10-10-10--|
E|----------------------------|

"Blue skies"
e|--8--8--8--8---8--8--8--8---8--8--8--8---8--8--8--8---|
B|--10-10-10-10--10-10-10-10--10-10-10-10--10-10-10-10--|
G|--10-10-10-10--10-10-10-10--10-10-10-10--10-10-10-10--|
D|--10-10-10-10--10-10-10-10--10-10-10-10--10-10-10-10--|
A|--8--8--8--8---8--8--8--8---8--8--8--8---8--8--8--8---|
E|------------------------------------------------------|

"Passageways the mind's eye"
e|--12-12-12-12--12-12-12-12--13-13-13-13--13-13-13-13--|
B|--14-14-14-14--14-14-14-14--13-13-13-13--13-13-13-13--|
G|--14-14-14-14--14-14-14-14--14-14-14-14--14-14-14-14--|
D|--14-14-14-14--14-14-14-14--15-15-15-15--15-15-15-15--|
A|--12-12-12-12--12-12-12-12--15-15-15-15--15-15-15-15--|
E|----------------------------13-13-13-13--13-13-13-13--|

"Contemplates."
e|--10-10-10-10--10-10-10-10--8--8--8--8---8--8--8--8---|
B|--10-10-10-10--10-10-10-10--10-10-10-10--10-10-10-10--|
G|--11-11-11-11--11-11-11-11--10-10-10-10--10-10-10-10--|
D|--12-12-12-12--12-12-12-12--10-10-10-10--10-10-10-10--|
A|--12-12-12-12--12-12-12-12--8--8--8--8---8--8--8--8---|
E|--10-10-10-10--10-10-10-10----------------------------|

e|--8--8--8--8---|
B|--10-10-10-10--|
G|--10-10-10-10--|
D|--10-10-10-10--| X6
A|--8--8--8--8---|
E|---------------|

e|--8---|
B|--10--|
G|--10--|
D|--10--|  (sustained)
A|--8---|
E|------|

et voila!

There's spring in the air
They're sweeping the streets
Wind is a breeze
The sun becomes, her he agrees

What's holding up her face?
Nothing but blue skies
Passageways to windows
That don't close

Where do you live?
Love is a place
Where are you from?
She says, ask yourself, ask anyone

What's holding up her face?
Nothing but blue skies
Passageways the mind's eye
Contemplates

            
            
Suggest correction
Creating personal tab
Creating personal tab
You can edit any tab online and save it as your Personal.

You can edit, replace or remove any tab part or add personal notes – all changes will be seen only by you.

Personal tabs can be accessed anytime from any device, even offline.
Learn more »
comments
print report bad tab
1 comment total.
0 reply
Murdock_ 10 Apr 10, 2009 04:37 PM

It sounds lovely :)

guest
You may want to rate the tab now too:
select rating
Wanna post a correction for this tab? Suggest correction