Oops, an error
Loading. Please wait.

Succexy bass

by Metric
527 views 1 this week
no commentswrite comment
1 2 3 4 5
3 more votes to show rating
add to favorites
×
Save as Personal and add changes to this tab that will be seen only by you. Learn more ›
×
You can save this tab as Personal to edit and correct it or add notes. All changes will be seen only by you. Learn more »
launch autoscroll
font size
0
reset
guitar tuner
edit
Autoscroll
slow
fast
+/-
esc
set tempo
stop
Author
Difficulty
METRIC - SUCCEXY
 *The timing in this song is rather odd and the bass is somewhat difficult to
hear, so there may be mistakes. Feel free to play it differently if you think it
sounds better. I might come on and change what I've written if I realize that
it sounds really off.


 verse (0:00 - 0:13)
|-----------------|-----------------|
|-------7---------|-------9---------|
|-9-------9-------|-10--------------| x3
|-----------------|-----------------|

   finish with:
  |-----------------|-----------------|
  |-------7---------|---------7-------|
  |-9-------9-------|-10----9---------|
  |-----------------|-----------------|


 pre-chorus (0:14 - 0:36)
|-----------------|-----------------|-----------------|-----------------|
|-----------------|-----------------|-----------------|-----------------|
|---------7-------|-9---------------|---------7-------|-9---------------| x3
|-9---------------|-----------------|-9---------------|-----------------|

   finish with:
  |-----------------|
  |-----------------|
  |-9---------------|
  |-----------------|

 chorus (0:36 - 0:49)
|-----------------|-----------------|
|-----------------|-----------------|
|---------------7-|-9-9---9---9-9-9-| x3
|-7-7---7-9-9-----|-----------------|

   finish with:
  |-----------------|-----------------|
  |-----------------|-----------------|
  |---------------7-|-9-9-9-9-9---9-9-|
  |-7-7---7-9-9-----|-----------------|

 second verse (0:50 - 1:03)
   start with:
  |-----------------|
  |-----------------|
  |-----------------|
  |-----------------|

|-----------------|-----------------|
|-------9---------|-------7---------|
|-10--------------|-9-------9-------| x3
|-----------------|-----------------|

   finish with:
  |-----------------|
  |---------7-------|
  |-10----9---------|
  |-----------------|

 pre-chorus (1:03 - 1:25)
|-----------------|-----------------|-----------------|-----------------|
|-----------------|-----------------|-----------------|-----------------|
|---------7-------|-9---------------|---------7-------|-9---------------| x3
|-5---------------|-----------------|-5---------------|-----------------|

   finish with:
  |-----------------|
  |-----------------|
  |-9---9---9---9---|
  |-----------------|

 chorus (1:26 - 1:53)
|-----------------|-----------------|
|-----------------|-----------------|
|---------------7-|-9-9---9---9-9-9-| x3
|-7-7---7-9-9-----|-----------------|

   finish with:
  |-----------------|-----------------|
  |-----------------|-----------------|
  |---------------7-|-9---------------|
  |-7-7---7-9-9-----|-----------------|

 bridge (1:53 - 2:45)
|-----------------|-----------------|
|-----------------|-----------------|
|---------7-7---8-|-9-9---9---9-9-9-| x3
|-7-7---7---------|-----------------|

|-----------------|-----------------|
|-9-9---9---------|-----------------|
|---------7-7---8-|-9-9---9---9-9-9-| x2
|-----------------|-----------------|

|-----------------|-----------------|
|-----------------|-----------------|
|---------7-7---8-|-9-9---9---9-9-9-| x3
|-7-7---7---------|-----------------|

|-----------------|-----------------|
|-9-9---9---------|-----------------|
|---------7-7---8-|-9-9---9---9-9-9-| x2
|-----------------|-----------------|

|-----------------|-----------------|
|-----------------|-----------------|
|---------7-7---8-|-9-9---9---9-9-9-| x3
|-7-7---7---------|-----------------|

   finish with:
  |-----------------|-----------------|
  |-9-9---9---------|-----------------|
  |---------7-7---8-|-9-9---9---9-9-9-|
  |-----------------|-----------------|

|-----------------|-----------------|-----------------|-----------------|
|-9-9---9---------|-----------------|-----------------|-----------------|
|---------7-7---7-|-9-9---9---9---9-|-9-9---9---9---9-|-9-9---9---9---9-|
|-----------------|-----------------|-----------------|-----------------|

 third verse (2:45 - 3:05)
   start with:
  |-----------------|
  |-------7---------|
  |---------9-------|
  |-----------------|

|-----------------|-----------------|
|-------9---------|-------7---------|
|-10--------------|-9-------9-------| x3
|-----------------|-----------------|

   finish with:
  |-----------------|
  |-------9---------| (let ring)
  |-10--------------|
  |-----------------|

 fine.

            
            
Suggest correction
Creating personal tab
Creating personal tab
You can edit any tab online and save it as your Personal.

You can edit, replace or remove any tab part or add personal notes – all changes will be seen only by you.

Personal tabs can be accessed anytime from any device, even offline.
Learn more »
Give kudos to tab author, rate the tab!
1 2 3 4 5
comments
print report bad tab
guest
You may want to rate the tab now too:
select rating
Wanna post a correction for this tab? Suggest correction