Oops, an error
Loading. Please wait.

White Gold tab

by Metric
2,306 views 1 this week
no commentswrite comment
1 2 3 4 5
1 last vote to show rating
add to favorites
×
Save as Personal and add changes to this tab that will be seen only by you. Learn more ›
×
You can save this tab as Personal to edit and correct it or add notes. All changes will be seen only by you. Learn more »
launch autoscroll
font size
0
reset
how to read this tab
guitar tuner
edit
Autoscroll
slow
fast
+/-
esc
set tempo
stop
Author
-------------------------------------------------------------------------------
                             White Gold - METRIC
-------------------------------------------------------------------------------
Tabbed by:Duncanno Cintronno
Email:jasoncintron@yahoo.com

 k this is my first attempt at tabbing.(cliche i know) im sure its not right but sounds 
enough. especially the chorus, and bridge, those are really off, if someone knows it 
please email me or tab it yourself

Tuning:EADGBe

intro

e|---------------------------------------------------------------------------|
B|--0--1--0-------------0--1--0----------------0--1--0-------------0---------|
G|----------0--0-----0-----------0--0-------0-----------0--2-----2----0------|
D|--2-------------2-----2------------------2---2--------------2----------2---|
A|--3----------2--------3-----------2----------3-----------0----------2------|
E|-------------3--------------------3---------------------------------0----0~|

verses

e|---------------------------------------------------------------------------|
B|--0--1--0-------------0--1--0----------------0--1--0-------------0---------|
G|----------0--0-----0-----------0--0-------0-----------0--2-----2----0------|
D|--2-------------2-----2------------------2---2--------------2----------2---|
A|--3----------2--------3-----------2----------3-----------0----------2------|
E|-------------3--------------------3---------------------------------0----0~|

e|---------------------------------------------------------------------------|
B|--0--1--0-------------0--1--0----------------0--1--0-------------0---------|
G|----------0--0-----0-----------0--0-------0-----------0--2-----2----0------|
D|--2-------------2-----2------------------2---2--------------2----------2---|
A|--3----------2--------3-----------2----------3-----------0----------2------|
E|-------------3--------------------3---------------------------------0----0~|

chorus (chords, i cant figure out the picking :/)

e|---------------------------------------------------------------------------|
B|----1-----3----1----0------------------------------------------------------|
G|----2-----2----0----1------------------------------------------------------|
D|----2-----0----2----2------------------------------------------------------|
A|----0-----0----3----2------------------------------------------------------|
E|----0----------3----0------------------------------------------------------|

riff thats played throughout the song

e|-----------------------------------------------------------------------------|
B|-----------------------------------------------------------------------------|
G|---7----7-8--7--5--9-----5--7-----------7----7-8--7--5--9------5--7------4--5|
D|----------------------7--------7--5--4----------------------7---------7------|
A|-----------------------------------------------------------------------------|
E|-----------------------------------------------------------------------------|


e|-----------------------------------------------------------------------------|
B|------------------------------------------------------------8-----9----------|
G|---7----7-8--7--5--9-----5--7-----------7----7-8--7--5--9------9-------------|
D|----------------------7--------7--5--4---------------------------------------|
A|-----------------------------------------------------------------------------|
E|-----------------------------------------------------------------------------|


| /  slide up
| \  slide down
| h  hammer-on
| p  pull-off
| ~  vibrato
| +  harmonic
| x  Mute note

            
            
Suggest correction
Creating personal tab
Creating personal tab
You can edit any tab online and save it as your Personal.

You can edit, replace or remove any tab part or add personal notes – all changes will be seen only by you.

Personal tabs can be accessed anytime from any device, even offline.
Learn more »
Give kudos to tab author, rate the tab!
1 2 3 4 5
comments
print report bad tab
guest
You may want to rate the tab now too:
select rating
Wanna post a correction for this tab? Suggest correction