Oops, an error
Loading. Please wait.

Control tab

version 2
version 2

Whole song

Interactive

6,944 views 3 this week
no commentswrite comment
1 2 3 4 5
1 last vote to show rating
add to favorites
×
Save as Personal and add changes to this tab that will be seen only by you. Learn more ›
×
You can save this tab as Personal to edit and correct it or add notes. All changes will be seen only by you. Learn more »
launch autoscroll
font size
0
reset
how to read this tab
guitar tuner
edit
Autoscroll
slow
fast
+/-
esc
set tempo
stop
Author
Difficulty
Song: Control
Artist: Metro Station
Album: Metro Station
Version: One
Tuning: Standard


There’s that insane keyboard intro part and then a second keyboard part comes in. Then 
the opening chords. And I don’t know why, but Mason plays this COMPLETELY different live.

Intro

|---------------------------------------------------------------------]
|---------------------------------------------------------------------]
|---------------------------------------------------------------------]
|---7-7-------3-3---2-2----7-7---7-7--3-3---2-2---5-5--7-7------------]
|---7-7-------3-3---2-2----7-7---7-7--3-3---2-2---5-5--7-7------------]
|---5-5-------1-1---0-0----5-5---5-5--1-1---0-0---3-3--5-5------------]

The verses are just the chorus palm-muted.

Ok, so here’s the chorus, again, Mason and Trace play this way differently in concert, a 
step down. There will be another live version of this tab but I’m sure about the 
tablature.

Chorus (x4)

|---------------------------------------------------------------------]
|---------------------------------------------------------------------]
|----------------10----9----------------------------------------------]
|--7-----10------10----9----------------------------------------------]
|--7-----10------8-----7----------------------------------------------]
|--5-----8------------------------------------------------------------]

After the chorus there’s some chords like the intro but slightly different…

Post Chorus (x2)

|---------------------------------------------------------------------]
|---------------------------------------------------------------------]
|-----------------10-10-----------------------------------------------]
|---7-7---10-10—--10-10---3-3---2-2---3-3-----------------------------]
|---7-7---10-10---8--8----3-3---2-2---3-3-----------------------------]
|---5-5---8--8------------1-1---0-0---1-1-----------------------------]

The small part after the bridge is the chorus.

            
            
Suggest correction
Creating personal tab
Creating personal tab
You can edit any tab online and save it as your Personal.

You can edit, replace or remove any tab part or add personal notes – all changes will be seen only by you.

Personal tabs can be accessed anytime from any device, even offline.
Learn more »
Give kudos to tab author, rate the tab!
1 2 3 4 5
comments
print report bad tab
guest
You may want to rate the tab now too:
select rating
Wanna post a correction for this tab? Suggest correction