Oops, an error
Loading. Please wait.

Control tab

version 1
version 1

Whole song

Interactive

7,933 views 1 this week
no commentswrite comment
1 2 3 4 5
2 more votes to show rating
add to favorites
×
Save as Personal and add changes to this tab that will be seen only by you. Learn more ›
×
You can save this tab as Personal to edit and correct it or add notes. All changes will be seen only by you. Learn more »
launch autoscroll
font size
0
reset
how to read this tab
guitar tuner
edit
Autoscroll
slow
fast
+/-
esc
set tempo
stop
Author
Difficulty
-------------------------------------------------------------------------------
                            CONTROL - Metro Station
-------------------------------------------------------------------------------

There was a lot missing from the other tab. This is all that you should need, so print 
one and the other one!

On The first part, play quietly and hold down the Am chord the whole time

(Quiet, Slow First Part)
e|---------------0-----------0-----|
B|-----------1-------------------1-|
G|---2---2-----------2---2---------|
D|-2---2---2---2---2---2---2---2---| x2

On the next part, play loud and figure out the rhythm yourself from the song! Do not 
down the notes on this one because it sounds a lot better if right after you play the note, 
let go, and it sounds more like the synth!

(Louder, Fast Part)
e|-----------------------0-|
B|-----------------1-------|
G|---2---2---2-------------|
D|-2---2---2---2-2---2-2---|

e|---------------0-0-|
B|-----------1-------|
G|---2---2-----------|
D|-2---2---2---2-----|

And all of that x2 also

and thats all that was missing from the other tab

There's like a pause section where you play nothing also...

"Another cigarette and I'm so bored..."

            
            
Suggest correction
Creating personal tab
Creating personal tab
You can edit any tab online and save it as your Personal.

You can edit, replace or remove any tab part or add personal notes – all changes will be seen only by you.

Personal tabs can be accessed anytime from any device, even offline.
Learn more »
Give kudos to tab author, rate the tab!
1 2 3 4 5
comments
print report bad tab
guest
You may want to rate the tab now too:
select rating
Wanna post a correction for this tab? Suggest correction