Oops, an error
Loading. Please wait.

Kelsey tab

version 2
version 2

Whole song

Interactive

19,329 views 1 this week
2 commentsread comments
1 2 3 4 5
x 5
add to favorites
×
Save as Personal and add changes to this tab that will be seen only by you. Learn more ›
×
You can save this tab as Personal to edit and correct it or add notes. All changes will be seen only by you. Learn more »
launch autoscroll
font size
0
reset
how to read this tab
guitar tuner
edit
Autoscroll
slow
fast
+/-
esc
set tempo
stop
I saw the other tab for this, and it's about 2 steps off, so i wanted to fix it.
I normally don't do guitar tabs because they take to long, but this song is too
good for people to not have the right notes..

Keyboard intro
(Plays: F C A G)

Second Intro
(when all music comes in)
E------------------|
B------------------|
G-10~~-5---2-------|
D-10~~-5---2---5~~-|
A--8~~-3-~~0~~-5~~-|
E--------------3~~-|

"So don't let anyone scare you..."
E-----------------|
B-----------------|
G-----5~--2~------|
D-3~--5~--2~---5~-|
A-3~--3~--0~---5~-|
E-1~-----------3~-|

"You better watch it..."
E-----------------|
B-----------------|
G-----5~--2~------|
D-3~--5~--2~---5~-|
A-3~--3~--0~---5~-|
E-1~-----------3~-|

"I know, I know, I know.."
E-----------------|
B-----------------|
G-----5~--2~------|
D-3~--5~--2~---5~-|
A-3~--3~--0~---5~-|
E-1~-----------3~-|

"I know, I know, I know.."
E-----------------|
B-----------------|
G-----5~--2~------|
D-3~--5~--2~---5~-|
A-3~--3~--0~---5~-|
E-1~-----------3~-|

Chorus
"I'd swim the ocean for you..."
E------------------------------------|
B------------------------------------|
G-10101010-55555555-2222222----------|
D-10101010-55555555-2222222-55555555-|
A-88888888-33333333-0000000-55555555-|
E---------------------------33333333-|

Intro
E------------------|
B------------------|
G-10~~-5---2-------|
D-10~~-5---2---5~~-|
A--8~~-3-~~0~~-5~~-|
E--------------3~~-|

"Well it's gunna burn harder.."
E-----------------|
B-----------------|
G-----5~--2~------|
D-3~--5~--2~---5~-|
A-3~--3~--0~---5~-|
E-1~-----------3~-|

"So let me say that I love you..."
E-----------------|
B-----------------|
G-----5~--2~------|
D-3~--5~--2~---5~-|
A-3~--3~--0~---5~-|
E-1~-----------3~-|

"I want you so bad.."
E-----------------|
B-----------------|
G-----5~--2~------|
D-3~--5~--2~---5~-|
A-3~--3~--0~---5~-|
E-1~-----------3~-|

"I want you..."
E-----------------|
B-----------------|
G-----5~--2~------|
D-3~--5~--2~---5~-|
A-3~--3~--0~---5~-|
E-1~-----------3~-|

Chorus
"I'd swim the ocean for you..."
E------------------------------------|
B------------------------------------|
G-10101010-55555555-2222222----------|
D-10101010-55555555-2222222-55555555-|
A-88888888-33333333-0000000-55555555-|
E---------------------------33333333-|

Bridge
(Just drums)

Outro
"You'll never, ever let me in.."
Chorus
"I'd swim the ocean for you..."
E------------------------------------|
B------------------------------------|
G-10101010-55555555-2222222----------|
D-10101010-55555555-2222222-55555555-|
A-88888888-33333333-0000000-55555555-|
E---------------------------33333333-|

Thats it! easy song and took no time to tab at all. MY first guitar tab (But i
play guitar, not bass, i just tab bass more) ENJOY! Any questions? E-mail me at
ALwaysfalling01@hotmail.com

            
            
Suggest correction
Creating personal tab
Creating personal tab
You can edit any tab online and save it as your Personal.

You can edit, replace or remove any tab part or add personal notes – all changes will be seen only by you.

Personal tabs can be accessed anytime from any device, even offline.
Learn more »
comments
print report bad tab
2 comments total.
0 reply
astrodremr 30 Dec 31, 2007 09:43 PM

spot on man, the only thing thats missin is the piano single string, but that's in the other one so :D

gr8 job, i'm
glad you decided that you couldn let this one go :)

0 reply
guitarfanatic27 10 Jul 03, 2008 12:41 PM

just one thing. its F C Am G.

otherwise, its great. =]

guest
You may want to rate the tab now too:
select rating
Wanna post a correction for this tab? Suggest correction