Oops, an error
Loading. Please wait.

Now That Were Done tab

version 3
version 3

Whole song

Interactive

1,654 views 1 this week
no commentswrite comment
1 2 3 4 5
3 more votes to show rating
add to favorites
×
Save as Personal and add changes to this tab that will be seen only by you. Learn more ›
×
You can save this tab as Personal to edit and correct it or add notes. All changes will be seen only by you. Learn more »
launch autoscroll
font size
0
reset
how to read this tab
guitar tuner
edit
Autoscroll
slow
fast
+/-
esc
set tempo
stop
Metro Station - Now That We're Done
Standard tuning

Watch my youtube video if you're not sure.
http://www.youtube.com/watch?v=lnrPeQE60io

Just listen to the song and play these chords, I'm not sure how many times.
They sound just fine with it though.
I can't really hear any guitar but it plays nicely with the song.

Intro / Verses  
       
  Emaj7        C#5

e|--7---------------------------|
B|--9---------------------------|
G|--8---x2----------------------|
D|--9-----------11--------------|
A|--7-----------11----x2--------|
E|--------------9---------------|

Chorus
      A5     G5    F#5   G5
e|----------------------------|
B|----------------------------|
G|----14-----11----9----11----|
D|----14-----11----9----11----|
A|----12-----9-----7----9-----|
E|----------------------------|

Bridge - Listen and lay this over and over again until it goes back to the chorus.
      Emaj7
e|------7------------|
B|------9------------|
G|------8------------|
D|------9------------|
A|------7------------|
E|-------------------|

Outro - ~ (Let chords ring out)
   Emaj7
e|---7~--7~-----------------------|
B|---9~--9~-----------------------|
G|---8~--8~-----------------------|
D|---9~--9~--11~--11~-------------|
A|---7~--7~--11~--11~-------------|
E|-----------9-~--9---------------|


Intro x2 (Everybody get down)
Verse x1 (She's just a friend...)
Chorus x2 (Now that we're done, I'm so sorry...)
Verse part x1 (Everybody get down)
Verse x1 (You still call me phone...)
Chorus x4 (Now that we're done, I'm so sorry...)
Bridge x4 (Now I see you with him...)
Chorus part x2(without lyrics)  
Chorus x4 (Now that we're done, I'm so sorry...)
Outro x1 (without lyrics)

            
            
Suggest correction
Creating personal tab
Creating personal tab
You can edit any tab online and save it as your Personal.

You can edit, replace or remove any tab part or add personal notes – all changes will be seen only by you.

Personal tabs can be accessed anytime from any device, even offline.
Learn more »
Give kudos to tab author, rate the tab!
1 2 3 4 5
comments
print report bad tab
guest
You may want to rate the tab now too:
select rating
Wanna post a correction for this tab? Suggest correction