Oops, an error
Loading. Please wait.

Blue Hen tab

85 views 6 this week
no commentswrite comment
1 2 3 4 5
2 more votes to show rating
add to favorites
×
Save as Personal and add changes to this tab that will be seen only by you. Learn more ›
×
You can save this tab as Personal to edit and correct it or add notes. All changes will be seen only by you. Learn more »
launch autoscroll
font size
0
reset
how to read this tab
guitar tuner
edit
Autoscroll
slow
fast
+/-
esc
set tempo
stop
Artist: mewithoutyou
Song: Blue Hen
Album: Pale Horses
Tabbed by: gustavoaraujo999@hotmail.com
Tuning: Standard (EADGBE)


== GUITAR ONE (LEFT SPEAKER) ==

0:03
e|---------------------------------|
B|---------------------------------|
G|---------------------------------|
D|---------------------------------|
A|-7-7-7-7-7-7-7-7-7-7-7-7-7-7-7-7-|
E|---------------------------------|


0:27
e|-10\7-------7-------------12-7--------7---7---|
B|--------7-8-----8-----------------7-8---7-----|
G|------------------9---------------------------|
D|----------------------------------------------|
A|----------------------------------------------|
E|----------------------------------------------|


0:53
e|----------------------------------------------|
B|-12-12-12-12-12-12-12-12-10-10-10-10-8-8-7-7--|
G|-x--x--x--x--x--x--x--x--x--x--x--x--x-x-x-x--|
D|-9--9--9--9--12-12-12-12-7--7--7--7--5-5-4-4--|
A|----------------------------------------------|
E|----------------------------------------------|

e|----------------------------------------------|
B|-12-12-12-12-12/13-13-13-10-10-10-10-8-8-7-7--|
G|-x--x--x--x--x--x--x--x--x--x--x--x--x-x-x-x--|
D|-9--9--9--9--9-/10-10-10-7--7--7--7--5-5-4-4--|
A|----------------------------------------------|
E|----------------------------------------------|


1:17
e|---7-7-7------------------|---7-7-7------------------|
B|---7-7-7------------------|---7-7-7------------------|
G|---7-7-7------------------|---7-7-7------------------|
D|--------------------------|--------------------------|
A|--------------------------|--------------------------|
E|--------------------------|--------------------------|

e|---7-7-7------------------|---7-7-7------------------|
B|---7-7-7------------------|---7-7-7------------------|
G|---7-7-7------------------|---7-7-7------------------|
D|--------------------------|--------------------------|
A|--------------------------|--------------------------|
E|--------------------------|--------------------------|


1:24
e|---7-7-7-----10--8--7-----|---7-7-7-----10--8--7-----|
B|---7-7-7--------------8---|---7-7-7--------------8---|
G|---7-7-7----------------9-|---7-7-7----------------9-|
D|--------------------------|--------------------------|
A|--------------------------|--------------------------|
E|--------------------------|--------------------------|

e|---7-7-7-----10---12-7----|---7-7-7------------------|
B|---7-7-7------------------|---7-7-7-----10--8-10-----|
G|---7-7-7------------------|---7-7-7--------------9---|
D|--------------------------|--------------------------|
A|--------------------------|--------------------------|
E|--------------------------|--------------------------|


1:40
e|-----------------------------------------|
B|-8-8-8-8-7-7-7-7-10-10-10-10-10-12-12-12-|
G|-----------------------------------------|
D|-----------------------------------------|
A|-----------------------------------------|
E|-----------------------------------------|


2:12
e|----------------------------------------------|
B|-12-12-12-12-12-12-12-12-10-10-10-10-8-8-7-7--|
G|-x--x--x--x--x--x--x--x--x--x--x--x--x-x-x-x--|
D|-9--9--9--9--12-12-12-12-7--7--7--7--5-5-4-4--|
A|----------------------------------------------|
E|----------------------------------------------|

e|----------------------------------------------|
B|-12-12-12-12-12/13-13-13-10-10-10-10-8-8-7-7--|
G|-x--x--x--x--x--x--x--x--x--x--x--x--x-x-x-x--|
D|-9--9--9--9--9-/10-10-10-7--7--7--7--5-5-4-4--|
A|----------------------------------------------|
E|----------------------------------------------|



== GUITAR TWO (RIGHT SPEAKER) ==

0:03
e|-----------------|
B|-----------------|
G|-----------------|
D|-------------7-5-|
A|---9-7---9-7-----|
E|-0-----0---------|


0:19
e|-----------------------------------|
B|-7-7-5--------3--------------------|
G|-------4----4----------------------|
D|--------------------5-----5-0------|
A|------------------7-----0-----7----|
E|-----------------------------------|


0:49
e|----------------|----------------|
B|-8-----8--------|-7-----7--------|
G|---7-----7------|---7-----7------|
D|-----9-----9----|-----9-----9----|
A|----------------|----------------|
E|----------------|----------------|


0:53
e|------------------------------------------------------|
B|-7-7-7-7--10-10-10-10--10-10-10-10--------------------|
G|-7-7-7-7--9--9--9--9---11-11-11-11----9-9-12-12-9-9---|
D|-9-9-9-9--10-10-10-10--10-10-10-10----x-x-x--x--x-x---|
A|--------------------------------------7-7-10-10-7-7---|
E|------------------------------------------------------|

e|------------------------------------------------------|
B|-7-7-7-7--10-10-10-10--10-10-10-10--------------------|
G|-7-7-7-7--9--9--9--9---11-11-11-11--------------------|
D|-9-9-9-9--10-10-10-10--10-10-10-10------------?-------|
A|------------------------------------------------------|
E|------------------------------------------------------|


1:07
e|----------------------------------|---------------------------------------|
B|----------------------------------|---------------------------------------|
G|-11--7-4--7---9----11--12-11-9-4--|-11-9-11-12-14--9--4---9-7--9----------|
D|-x---x-x--x---x----x---x--x--x-x--|-x--x-x--x--x---x--x---x-x--x----------|
A|-9---5-2--5---7----9---10-9--7-2--|-9--7-9--10-12--7--2---7-5--7----------|
E|----------------------------------|---------------------------------------|


1:24
e|-----------------------------------|
B|-7-7-5--------3--------------------|
G|-------4----4----------------------|
D|--------------------5-----5-0------|
A|------------------7-----0-----7----|
E|-----------------------------------|


1:40
e|----------------|----------------|----------------------------------------|
B|-8-----8--------|-7-----7--------|-10------10------12---------------------|
G|---7-----7------|---7-----7------|----9-------9---------------------------|
D|-----9-----9----|-----9-----9----|------10------10------------------------|
A|----------------|----------------|----------------------------------------|
E|----------------|----------------|----------------------------------------|

e|----------------|----------------|----------------------------------------|
B|-8-----8--------|-7-----7--------|-10------10------12---------------------|
G|---7-----7------|---7-----7------|----9-------9---------------------------|
D|-----9-----9----|-----9-----9----|------10------10------------------------|
A|----------------|----------------|----------------------------------------|
E|----------------|----------------|----------------------------------------|


1:55
e|----------------|----------------|----------------------------------------|
B|-8-----8--------|-7-----7--------|-10------10------12------8------8---7---|
G|---7-----7---9--|---7-----7---7--|----9-------9-------9------7------------|
D|-----9-----9----|-----9-----9----|------10------10------10-----9----9---9-|
A|----------------|----------------|----------------------------------------|
E|----------------|----------------|----------------------------------------|

e|----------------|----------------|---------------------------------10---------|
B|-8-----8--------|-7-----7--------|-10------10------12------13-----------------|
G|---7-----7---9--|---7-----7---7--|----9-------9-------9-------9-------9----11-|
D|-----9-----9----|-----9-----9----|------10------10------10------10------10----|
A|----------------|----------------|--------------------------------------------|
E|----------------|----------------|--------------------------------------------|


2:12
e|------------------------------------------------------|
B|-7-7-7-7--10-10-10-10--10-10-10-10--------------------|
G|-7-7-7-7--9--9--9--9---11-11-11-11----9-9-12-12-9-9---|
D|-9-9-9-9--10-10-10-10--10-10-10-10----x-x-x--x--x-x---|
A|--------------------------------------7-7-10-10-7-7---|
E|------------------------------------------------------|

e|------------------------------------------------------|
B|-7-7-7-7--10-10-10-10--10-10-10-10--------------------|
G|-7-7-7-7--9--9--9--9---11-11-11-11--------------------|
D|-9-9-9-9--10-10-10-10--10-10-10-10------------?-------|
A|------------------------------------------------------|
E|------------------------------------------------------|


2:26
e|--------------------------------------------------------------------------|
B|--------------------------------------------------------------------------|
G|--------------------------------------------------------------------------|
D|--------------------------------------------------------------------------|
A|--------------------------------------------------------------------------|
E|-7----3---5--------7--7-0--------10--10-0---------------------------------|

e|--------------------------------------------------------------------------|
B|--------------------------------------------------------------------------|
G|--------------------------------------------------------------------------|
D|-------------------------------- -----------------------------------------|
A|-----------------------------------9--9--9--------------------------------|
E|-3----5-7-8-7---7-7-7----10-10-10--10-10-10-------------------------------|


2:49
e|----------------|----------------|----------------------------------------|
B|-8-----8--------|-7-----7--------|-10------10------12---------------------|
G|---7-----7---9--|---7-----7---7--|----9-------9---------------------------|
D|-----9-----9----|-----9-----9----|------10------10------------------------|
A|----------------|----------------|----------------------------------------|
E|----------------|----------------|----------------------------------------|

            
            
Suggest correction
Creating personal tab
Creating personal tab
You can edit any tab online and save it as your Personal.

You can edit, replace or remove any tab part or add personal notes – all changes will be seen only by you.

Personal tabs can be accessed anytime from any device, even offline.
Learn more »
Give kudos to tab author, rate the tab!
1 2 3 4 5
comments
print report bad tab
guest
You may want to rate the tab now too:
select rating
Wanna post a correction for this tab? Suggest correction