Oops, an error
Loading. Please wait.

C-Minor intro tab

version 1
version 1

Intro

4,547 views 6 this week
6 commentsread comments
1 2 3 4 5
x 5
add to favorites
×
Save as Personal and add changes to this tab that will be seen only by you. Learn more ›
×
You can save this tab as Personal to edit and correct it or add notes. All changes will be seen only by you. Learn more »
launch autoscroll
font size
0
reset
how to read this tab
guitar tuner
edit
Autoscroll
slow
fast
+/-
esc
set tempo
stop
high e -----------------------------------------------------------|
b      --------4---------4---------4------------------------------|
g      -----------------------------------------------------------|
d      ----------5---------5----------5---------------------------|
a      --1s3-------1s3--------1s3---------------------------------|
low e  -----------------------------------------------------------|

------------------------------------------------------------------|
------------2--------------2--------------------------------------|
------------------------------------------------------------------|
---------------3--------------3-----------------------------------|
-------3s1-----------3s1------------------------------------------|
------------------------------------------------------------------|

then this is the beginning of the verse (its right this time trust me)

------------------------------------------------------------------|
-----------------4----6-4-3------3---3----------------------------|
---------------5---5-----------5---5---5-4s5----------------------|
------------------------------------------------------------------|
------------------------------------------------------------------|
------------------------------------------------------------------|
alright dont tell me it isnt right when i know it is since its in c-minor, hence the 
name just play it out and it will sound right
s= slide

            
            
Suggest correction
Creating personal tab
Creating personal tab
You can edit any tab online and save it as your Personal.

You can edit, replace or remove any tab part or add personal notes – all changes will be seen only by you.

Personal tabs can be accessed anytime from any device, even offline.
Learn more »
comments
print report bad tab
6 comments total. Showing first comments.
+1 reply
myskeletonwalks 10 Jun 05, 2007 12:01 AM

sorry its not right
its something like
---------
------5--
---------
--------6
-2/4-4-4-
---------
then its
---------
------4--
---------
--------6
-4\2-2-2-
---------

and the rest is right but just needs to be a half step higher

0 reply
jtrocks44 256 Jan 21, 2009 01:43 PM

I don't agree with myskeletonwalks. I think you have it right, but I would add notes on the g string and change the 2 on the b string to a 3 like this:
|------------|
|-----3------|
|-------3----|
|---------3--|
|-3s1--------|
|------------|

0 reply
speedmetal777 92 Feb 17, 2009 04:53 AM

high e -----------------------------------------------------------|
b --------4---------4---------4------------------------------|
g ---------5---------5---------5-----------------------------|
d ----------5---------5---------5----------------------------|
a --1s3-------1s3--------1s3---------------------------------|
low e -----------------------------------------------------------|

------------------------------------------------------------------|
------------3--------------3--------------------------------------|
-------------3--------------3-------------------------------------|
--------------5--------------5------------------------------------|
-------3s1-----------3s1------------------------------------------|
------------------------------------------------------------------|

I think.

guest
You may want to rate the tab now too:
select rating
Wanna post a correction for this tab? Suggest correction