Oops, an error
Loading. Please wait.

D-Minor tab

version 1
version 1

Whole song

1,170 views 6 this week
3 commentsread comments
1 2 3 4 5
2 more votes to show rating
add to favorites
×
Save as Personal and add changes to this tab that will be seen only by you. Learn more ›
×
You can save this tab as Personal to edit and correct it or add notes. All changes will be seen only by you. Learn more »
launch autoscroll
font size
0
reset
how to read this tab
guitar tuner
edit
Autoscroll
slow
fast
+/-
esc
set tempo
stop
Band: mewithoutYou
Song: D-Minor
Album: Pale Horses [2015]

h = hammer-on
/ = slide down to note

Intro/Verse riff [0:00 - 0:50]:
|------------------------------------|
|------------------------------------|
|----------------7-7-7-----7---------|
|-----7--7---------------------------|      x3
|--5--------5/8--------8-8-----------|
|------------------------------------|

Following each 3rd bar of the above riff, play:
|-----------------------------------|
|-----------------------------------|
|--------8-8--7-7-7-7-----7---------|
|-----5-----------------------------|
|---------------------8-8-----------|
|-----------------------------------|


Chorus [0:51 - 1:14]:
“We’re an unshrunk patch on a tear of the edge”
|----------------------------------|
|----------------------------------|
|----------------------------------|
|------5-5-7-7-8-8-7---7~----------|       x4
|----5---------------5-------------|
|----------------------------------|


Verse 2 [1:15 - 1:53]:
Rhythm Guitar
|----------------------------------|
|----------------------------------|
|----------------7-7-7-----7-------|
|-----7--7-------------------------|      x3
|--5--------5/8--------8-8---------|
|----------------------------------|

Then:
|----------------------------------|
|----------------------------------|
|--------8-8--7-7-7-7-----7--------|
|-----5----------------------------|
|---------------------8-8----------|
|----------------------------------|

|-----------------------------------|
|-----------------------------------|
|----------------7-7-7-----7--------|
|-----7--7--------------------------|      x7
|--5--------5/8--------8-8----------|
|-----------------------------------|

Then:
|----------------------------------|
|----------------------------------|
|--------8-8--7-7-7-7-----7--------|
|-----5----------------------------|
|---------------------8-8----------|
|----------------------------------|


Bridge Intro [1:54] (credit to cheez0rokz for the correction):

Rhythm Guitar:
|--------------------------------------------------------|
|--------------------------------------------------------|
|-------3------7-------10-------2h3-0----3~---------3~---|
|--------------------------------------------------------|
|--------------------------------------------------------|
|---3-3----6-6----10-10------1-1-------3-----1--3-3------|

Bridge [2:04]
“This is not the first time…”

Rhythm Guitar:
|--------------------------------------------------------|
|--------------------------------------------------------|
|-------3------7-------10-------2h3-0----3~---------3~---|
|--------------------------------------------------------|         x3
|--------------------------------------------------------|
|---3-3----6-6----10-10------1-1-------3-----1--3-3------|

On the 4th time, play:
|-------------------------------------------|
|-------------------------------------------|
|-------3------7--------10------2h3~--------|
|-------------------------------------------|
|-------------------------------------------|
|---3-3----6-6----10-10-----1-1-------------|


Lead Guitar:
|--------------------------------------------------------|
|-------------8-8---8p6-6---6----------------------------|
|-----7-7---------------------7p5h7---5h7-7~---5h7-7~----|
|---5-------8--------------------------------------------| 
|--------------------------------------------------------|
|--------------------------------------------------------|

|--------------------------------------------------------|
|-------------8-8---8p6-6---6----------------------------|
|-----7-7---------------------7p5h7---5--------5h7-7~----|
|---5-------8---------------------------8-8~-------------| 
|--------------------------------------------------------|
|--------------------------------------------------------|

|--------------------------------------------------------|
|-----8-8---8p6-6---8------------------------------------|
|---------------------7-7---7p5-5-----5h7-7~--5h7-7~-----|
|---5-------------------------------8--------------------| 
|--------------------------------------------------------|
|--------------------------------------------------------|

|--------------------------------------------------------|
|-------------8-8---8p6-6---6----------------------------|
|-----7-7---------------------7-7~-----------------------|
|---5-------8--------------------------------------------| 
|--------------------------------------------------------|
|--------------------------------------------------------|

Outro [2:37]:
“Won’t you help me get by”
|--------------------------------------------|
|--------------------------------------------|
|--------------------------------------------|
|-------5-5~---7-7~---8-8~--8-7-5-7----------|          x2
|----5-------5------5---------------5~-------|
|--------------------------------------------|

|------------------------------------------------------------------|
|------------------------------------------------------------------|
|----7-7-7-7-----7-7-7-7-------7~-----7-7-7-7-----7-7-7-7----------|
|------------8-8---------8-8-7----------------8-8---------8-8-7~---|
|------------------------------------------------------------------|
|------------------------------------------- ----------------------|

Notes:
- There are a couple of notes that may be slightly off in the bridge; if anyone has a 
more accurate suggestion, let me know and I will give you credit in the tab for the correction.
- The same thing goes for the lead guitar part in the bridge; if anyone can tab it, I 
will gladly include it with proper credit given.
- Enjoy!

            
            
Suggest correction
Creating personal tab
Creating personal tab
You can edit any tab online and save it as your Personal.

You can edit, replace or remove any tab part or add personal notes – all changes will be seen only by you.

Personal tabs can be accessed anytime from any device, even offline.
Learn more »
Give kudos to tab author, rate the tab!
1 2 3 4 5
comments
print report bad tab
3 comments total.
0 reply
cheez0rokz 654 Aug 06, 2015 09:47 AM

I thought the bridge part was:

|--------------------------------------------------------|
|--------------------------------------------------------|
|-------3------7-------10-------2h3-0----3~---------3~---|
|--------------------------------------------------------| x4
|--------------------------------------------------------|
|---3-3----6-6----10-10------1-1-------3-----1--3-3------|

0 reply
SonnyisEmo 103 Aug 07, 2015 12:02 AM

I agree. I think that sounds much better. The tab has been edited and credit has been given. Thanks for the input!

0 reply
stuartrector 14 Jan 02, 2017 08:23 PM

I think the bridge is missing parts after the bridge intro. Here's what I came up with:

Bridge Intro
|--------------------------------------------------------|
|--------------------------------------------------------|
|-------3------7-------10-------2h3-0----3~---------3~---|
|--------------------------------------------------------|
|--------------------------------------------------------|
|---3-3----6-6----10-10------1-1-----3-3-----1--3-3------|

Bridge
|--------------------------------------------------------|
|-------------8-8---8p6-6---6----------------------------|
|-----7-7---------------------7p5h7---5h7-7~---5h7-7~----|
|---5-------8--------------------------------------------|
|--------------------------------------------------------|
|--------------------------------------------------------|

|--------------------------------------------------------|
|-------------8-8---8p6-6---6----------------------------|
|-----7-7---------------------7p5h7---5--------5h7-7~----|
|---5-------8---------------------------8-8~-------------|
|--------------------------------------------------------|
|--------------------------------------------------------|

|--------------------------------------------------------|
|-----8-8---8p6-6---8------------------------------------|
|---------------------7-7---7p5-5-----5h7-7~--5h7-7~-----|
|---5-------------------------------8--------------------|
|--------------------------------------------------------|
|--------------------------------------------------------|

|--------------------------------------------------------|
|-------------8-8---8p6-6---6----------------------------|
|-----7-7---------------------7-7~-----------------------|
|---5-------8--------------------------------------------|
|--------------------------------------------------------|
|--------------------------------------------------------|

guest
You may want to rate the tab now too:
select rating
Wanna post a correction for this tab? Suggest correction