Oops, an error
Loading. Please wait.

Flamethrower tab

678 views 3 this week
2 commentsread comments
1 2 3 4 5
1 last vote to show rating
add to favorites
×
Save as Personal and add changes to this tab that will be seen only by you. Learn more ›
×
You can save this tab as Personal to edit and correct it or add notes. All changes will be seen only by you. Learn more »
launch autoscroll
font size
0
reset
how to read this tab
guitar tuner
edit
Autoscroll
slow
fast
+/-
esc
set tempo
stop
Difficulty
intermediate
dylan parrish
flamethrower - i never said i was brave
THE ENTIRE SONG! wooooooooo
oh yeah thats right. word.

ok well ofcourse you need distortion, and on the part about the pick slides just listen 
the song to get it absolutely right. its realy hard to explain. so good luck any 
or comments dylanparrish@msn.com
this isn't my first song to tab my mwY but no ones voting on them and it would be 
appreciated thanks


flamethrower

|--------------------------------|
|--------------------------------|
|--------------------------------|
|-999--555--777--333-------------|
|-999--555--777--333-------------|
|-777--333--555--111-------------|x5

guitar 2 comes in on second time through
plays the same chords at the same time

{intro & 1st verse}

ok heres the tricky part
guitar 1

start sliding your pick on the 5&6 string
starting at the 12th fret down to the 7th
fret then slide back up (go back and forth
until the pre-verse stops)

guitar 2
|-----------------------------------------|
|-----------------------------------------|
|-----------------------------------------|
|-----------------------------------------|
|-999555777333---repeat      -------------|
|-777333555111-------listen for timing----|
  xxxxxxxxxxxx (x = palm mute)

same as first verse again 5 times


|-------------------------------------------------------------------|
|-------------------------------------------------------------------|
|-------------------------------------------------------------------|
|-0-0-0-00-0-(play over and over he says --i look down--------------|
|-5-5-5-55-5--------------------------------------------------------|
|-------------------------------------------------------------------|
 strumming is down down down downupdown down
                v   v    v     v^v        v

now its


|------------------------------------------|
|-555-9-3-5-9-5----play until end----------|
|-555-9-3-5-9-5----------------------------|
|-333-7-1-3-7-3----------------------------|
|------------------------------------------|

            
            
Suggest correction
Creating personal tab
Creating personal tab
You can edit any tab online and save it as your Personal.

You can edit, replace or remove any tab part or add personal notes – all changes will be seen only by you.

Personal tabs can be accessed anytime from any device, even offline.
Learn more »
Give kudos to tab author, rate the tab!
1 2 3 4 5
comments
print report bad tab
2 comments total.
0 reply
cheez0rokz 654 Aug 04, 2011 07:43 AM

It should be (in drop-D):

|---------------------------------|
|---------------------------------|
|---------------------------------|
|-9999--4444----0000--3333--------|
|-9999--4444----0000--3333--------|
|-9999--4444----0000--3333--------|x5

0 reply
cheez0rokz 654 Aug 04, 2011 07:52 AM

(AND the muted part before this is the chords above, but muted)
The "I was the one part" should be:

|---------------------------------|
|---------------------------------|
|-4-4-4-4-444-444-4-4-4-4-4444----|
|-x-x-x-x-xxx-xxx-x-x-x-x-xxxx----| x however many they play
|-2-2-2-2-222-222-2-2-2-2-2222----|
|---------------------------------|

guest
Wanna post a correction for this tab? Suggest correction