Oops, an error
Loading. Please wait.

In A Sweater Poorly Knit bass

version 1
version 1

Whole song

Interactive

3,921 views 1 this week
2 commentsread comments
1 2 3 4 5
x 3
add to favorites
×
Save as Personal and add changes to this tab that will be seen only by you. Learn more ›
×
You can save this tab as Personal to edit and correct it or add notes. All changes will be seen only by you. Learn more »
launch autoscroll
font size
0
reset
guitar tuner
edit
Autoscroll
slow
fast
+/-
esc
set tempo
stop
Author
Artist: mewithoutYou
Song: In a Sweater Poorly Knit
Album: Brother, Sister

Tabbed by: Dan Cooper

My all time favorite mwY song. This was not an easy song to tab out. A lot of harmonizing 

and alterations. I'm 99% sure that this tab is 100% correct. If you can prove me wrong 

gopher it.

(Don't play anything until the first chorus)


G|--9--9--|  |-----------|
D|---7----|  |------9----|
A|------4-|x3|-777-7-777-|
E|--------|  |-----------|

(Don't play during second verse)

G|--9--9--|  |-----------|
D|---7----|  |------9----|
A|------4-|x3|-777-7-777-|  Reapeat
E|--------|  |-----------|

Verse 3

G|---------------------|  |-------------------------|---------------|
D|----------------9----|  |-----------------9~------|-----------9---|
A|-999-999-9-777-7-777-|X2|-9-9-9~9-9-9-7-7---7-7-7-|-9-9-9~9-9---7-|
E|---------------------|  |-------------------------|---------------|



G|--9--9--|  |-----------|
D|---7----|  |------9----|
A|------4-|x3|-777-7-777-| Repeat
E|--------|  |-----------|

G|---9-------|  |-----------|
D|-77-7---6--|  |------9----|
A|------44-4-|x3|-777-7-777-| Repeat
E|-----------|  |-----------|

G|--9--9--|  |-----------|
D|---7----|  |------9----|
A|------4-|x3|-777-7-777-|
E|--------|  |-----------|

G|-----------|  |----------9-----|
D|-77-7------|  |------9---------|
A|------44-4-|x3|-777-7-777--12\-| 
E|-----------|  |----------------|

Not a very hard song but the very end is a tad tricky when it comes to timing.

God Bless!

            
            
Suggest correction
Creating personal tab
Creating personal tab
You can edit any tab online and save it as your Personal.

You can edit, replace or remove any tab part or add personal notes – all changes will be seen only by you.

Personal tabs can be accessed anytime from any device, even offline.
Learn more »
Give kudos to tab author, rate the tab!
1 2 3 4 5
comments
print report bad tab
2 comments total.
0 reply
ikram qahhar 10 Jun 20, 2007 09:24 AM

i think i have to agree on the all time favorite thing.

0 reply
shoebrush 10 Oct 22, 2007 12:07 PM

Good job the tabs ate 100% right. But i founde it easier to play a 9 on the E sting then a 4 on the A string. And to play a 11 on the A string then a 6 on the D string. It all sounds the same jest a little bit easier.good job! Here is an example.
G|---9-------| G|---9-------|
D|-77-7---6--| A|--------11-|
E|-----------| E|------99--9|

guest
You may want to rate the tab now too:
select rating
Wanna post a correction for this tab? Suggest correction