Oops, an error
Loading. Please wait.

Trail Blazer bass

version 1
version 1

Whole song

Interactive

121 views 1 this week
no commentswrite comment
1 2 3 4 5
3 more votes to show rating
add to favorites
×
Save as Personal and add changes to this tab that will be seen only by you. Learn more ›
×
You can save this tab as Personal to edit and correct it or add notes. All changes will be seen only by you. Learn more »
launch autoscroll
font size
0
reset
guitar tuner
edit
Autoscroll
slow
fast
+/-
esc
set tempo
stop
#----------------------------------PLEASE NOTE---------------------------------#
#This file is the author's own work and represents their interpretation of the #
#song. You may only use this file for private study, scholarship, or research. #
#------------------------------------------------------------------------------#

TRAIL BLAZER (Bassline)
As recorded by Mezarkabul
(From the 1994 Album TRAIL BLAZER)

Transcribed by Snakerf (K. Cagri Ozcan)
	

Music by Mezarkabul

Gtr I (E A D G) - 'bass'
Gtr II (E A D G B E) - 'oktave'
Gtr III (E A D G) - 'bass'

 Intro
  Q=143
 4/4
  Gtr III
   W
|---------------------------------------------|
|---------------------------------------------|
|---------------------------------------------|
|---------------------------------------------|
|
| Gtr II
|  S S  S  S S  S  S S  S  S S  S  S  S  S  S
|---------------------------------------------|
|---------------------------------------------|
|-16-9-14-16-9-12-16-9-14-16-9-12-16-12-14-16-|
|---------------------------------------------|
|---------------------------------------------|
|---------------------------------------------|


   W
|----------------------------------------------|
|----------------------------------------------|
|----------------------------------------------|
|----------------------------------------------|
|
|  S S  S  S S  S  S S  S  S S  S  S  S  S  S
|----------------------------------------------|
|----------------------------------------------|
|----------------------------------------------|
|-16-9-14-16-9-12-16-9-14-16-9-12-16-12-14-16--|
|----------------------------------------------|
|----------------------------------------------|


   W
|---------------------------------------------|
|---------------------------------------------|
|---------------------------------------------|
|---------------------------------------------|
|
|  S S  S  S S  S  S S  S  S S  S  S  S  S  S
|---------------------------------------------|
|---------------------------------------------|
|-16-9-14-16-9-12-16-9-14-16-9-12-16-12-14-16-|
|---------------------------------------------|
|---------------------------------------------|
|---------------------------------------------|


   W
|---------------------------------------------|
|---------------------------------------------|
|---------------------------------------------|
|---------------------------------------------|
|
|  S S  S  S S  S  S S  S  S S  S  S  S  S  S
|---------------------------------------------|
|---------------------------------------------|
|---------------------------------------------|
|-16-9-14-16-9-12-16-9-14-16-9-12-16-12-14-16-|
|---------------------------------------------|
|---------------------------------------------|


   W
|--------------------------------------|
|--------------------------------------|
|--3-----------------------------------|
|--------------------------------------|
|
|  S S S  S S S  S S S  S S S  S S S S
|--------------------------------------|
|--------------------------------------|
|-12-5-9-12-5-9-12-5-9-12-5-9-12-5-9-5-|
|--------------------------------------|
|--------------------------------------|
|--------------------------------------|


   W
|--------------------------------------------|
|--------------------------------------------|
|--5-----------------------------------------|
|--------------------------------------------|
|
|  S S  S  S S  S  S S  S  S S  S  S S  S  S
|--------------------------------------------|
|--------------------------------------------|
|-14-7-11-14-7-11-14-7-11-14-7-11-14-7-11-14-|
|--------------------------------------------|
|--------------------------------------------|
|--------------------------------------------|


 Verse
   E    E    E     E    E    E     E     E
|---------------------------------------------|
|---------------------------------------------|
|---------------------------------------------|
|--0----0----0-----0----0----0-----0-----0----|
|
|  S S  S  S S  S  S S  S  S S  S  S  S  S  S
|---------------------------------------------|
|---------------------------------------------|
|-16-9-14-16-9-12-16-9-14-16-9-12-16-12-14-16-|
|---------------------------------------------|
|---------------------------------------------|
|---------------------------------------------|


   E    E    E     E    E    E     E     E
|---------------------------------------------|
|---------------------------------------------|
|---------------------------------------------|
|--7----7----7-----7----7----7-----7-----7----|
|
|  S S  S  S S  S  S S  S  S S  S  S  S  S  S
|---------------------------------------------|
|---------------------------------------------|
|---------------------------------------------|
|-16-9-14-16-9-12-16-9-14-16-9-12-16-12-14-16-|
|---------------------------------------------|
|---------------------------------------------|


   E    E    E     E    E    E     E     E
|---------------------------------------------|
|---------------------------------------------|
|---------------------------------------------|
|--0----0----0-----0----0----0-----0-----0----|
|
|  S S  S  S S  S  S S  S  S S  S  S  S  S  S
|---------------------------------------------|
|---------------------------------------------|
|-16-9-14-16-9-12-16-9-14-16-9-12-16-12-14-16-|
|---------------------------------------------|
|---------------------------------------------|
|---------------------------------------------|


   E    E    E     E    E    E     E     E
|---------------------------------------------|
|---------------------------------------------|
|---------------------------------------------|
|--7----7----7-----7----7----7-----7-----7----|
|
|  S S  S  S S  S  S S  S  S S  S  S  S  S  S
|---------------------------------------------|
|---------------------------------------------|
|---------------------------------------------|
|-16-9-14-16-9-12-16-9-14-16-9-12-16-12-14-16-|
|---------------------------------------------|
|---------------------------------------------|


   E   E    E    E   E    E    E   E
|--------------------------------------|
|--------------------------------------|
|--3---3----3----3---3----3----3---3---|
|--------------------------------------|
|
|  S S S  S S S  S S S  S S S  S S S S
|--------------------------------------|
|--------------------------------------|
|-12-5-9-12-5-9-12-5-9-12-5-9-12-5-9-5-|
|--------------------------------------|
|--------------------------------------|
|--------------------------------------|


   E    E    E     E    E    E     E    E
|--------------------------------------------|
|--------------------------------------------|
|--5----5----5-----5----5----5-----5----5----|
|--------------------------------------------|
|
|  S S  S  S S  S  S S  S  S S  S  S S  S  S
|--------------------------------------------|
|--------------------------------------------|
|-14-7-11-14-7-11-14-7-11-14-7-11-14-7-11-14-|
|--------------------------------------------|
|--------------------------------------------|
|--------------------------------------------|


   E    E    E     E    E    E     E     E
|---------------------------------------------|
|---------------------------------------------|
|---------------------------------------------|
|--0----0----0-----0----0----0-----0-----0----|
|
|  S S  S  S S  S  S S  S  S S  S  S  S  S  S
|---------------------------------------------|
|---------------------------------------------|
|-16-9-14-16-9-12-16-9-14-16-9-12-16-12-14-16-|
|---------------------------------------------|
|---------------------------------------------|
|---------------------------------------------|


   E    E    E     E    E    E     E     E
|---------------------------------------------|
|---------------------------------------------|
|---------------------------------------------|
|--7----7----7-----7----7----7-----7-----7----|
|
|  S S  S  S S  S  S S  S  S S  S  S  S  S  S
|---------------------------------------------|
|---------------------------------------------|
|---------------------------------------------|
|-16-9-14-16-9-12-16-9-14-16-9-12-16-12-14-16-|
|---------------------------------------------|
|---------------------------------------------|


   E    E    E     E    E    E     E     E
|---------------------------------------------|
|---------------------------------------------|
|---------------------------------------------|
|--0----0----0-----0----0----0-----0-----0----|
|
|  S S  S  S S  S  S S  S  S S  S  S  S  S  S
|---------------------------------------------|
|---------------------------------------------|
|-16-9-14-16-9-12-16-9-14-16-9-12-16-12-14-16-|
|---------------------------------------------|
|---------------------------------------------|
|---------------------------------------------|


   E    E    E     E    E    E     E     E
|---------------------------------------------|
|---------------------------------------------|
|---------------------------------------------|
|--7----7----7-----7----7----7-----7-----7----|
|
|  S S  S  S S  S  S S  S  S S  S  S  S  S  S
|---------------------------------------------|
|---------------------------------------------|
|---------------------------------------------|
|-16-9-14-16-9-12-16-9-14-16-9-12-16-12-14-16-|
|---------------------------------------------|
|---------------------------------------------|


   E    E    E     E    E    E     E     E
|---------------------------------------------|
|---------------------------------------------|
|---------------------------------------------|
|--0----0----0-----0----0----0-----0-----0----|
|
|  S S  S  S S  S  S S  S  S S  S  S  S  S  S
|---------------------------------------------|
|---------------------------------------------|
|-16-9-14-16-9-12-16-9-14-16-9-12-16-12-14-16-|
|---------------------------------------------|
|---------------------------------------------|
|---------------------------------------------|


   E    E    E     E    E    E     E     E
|---------------------------------------------|
|---------------------------------------------|
|---------------------------------------------|
|--7----7----7-----7----7----7-----7-----7----|
|
|  S S  S  S S  S  S S  S  S S  S  S  S  S  S
|---------------------------------------------|
|---------------------------------------------|
|---------------------------------------------|
|-16-9-14-16-9-12-16-9-14-16-9-12-16-12-14-16-|
|---------------------------------------------|
|---------------------------------------------|


   E   E    E    E   E    E    E   E
|--------------------------------------|
|--------------------------------------|
|--3---3----3----3---3----3----3---3---|
|--------------------------------------|
|
|  S S S  S S S  S S S  S S S  S S S S
|--------------------------------------|
|--------------------------------------|
|-12-5-9-12-5-9-12-5-9-12-5-9-12-5-9-5-|
|--------------------------------------|
|--------------------------------------|
|--------------------------------------|


   E    E    E     E    E    E     E    E
|--------------------------------------------|
|--------------------------------------------|
|--5----5----5-----5----5----5-----5----5----|
|--------------------------------------------|
|
|  S S  S  S S  S  S S  S  S S  S  S S  S  S
|--------------------------------------------|
|--------------------------------------------|
|-14-7-11-14-7-11-14-7-11-14-7-11-14-7-11-14-|
|--------------------------------------------|
|--------------------------------------------|
|--------------------------------------------|


 Chorus
  E E E E E E E E   E E E E E E E E   E E E E E E E E   E E E E E E E E
|-----------------|-----------------|-----------------|-----------------|
|-----------------|-----------------|-----------------|-----------------|
|-7-7-7-7-7-7-7-7-|-0-0-0-0-0-0-0-0-|-6-6-6-6-6-6-6-6-|-2-2-2-2-2-2-2-2-|
|-----------------|-----------------|-----------------|-----------------|


  E E E E E E E E   E E E E E E E E   E E E E E E E E   E E E E E E E E
|-----------------|-----------------|-----------------|-----------------|
|-----------------|-----------------|-----------------|-----------------|
|-----------------|-0-0-0-0-0-0-0-0-|-6-6-6-6-6-6-6-6-|-2-2-2-2-2-2-2-2-|
|-0-0-0-0-0-0-0-0-|-----------------|-----------------|-----------------|


  E E E E E E E E   E E E E E E E E   E E E E E E E E   E E E E E E E E
|-----------------|-----------------|-----------------|-----------------|
|-----------------|-----------------|-----------------|-----------------|
|-7-7-7-7-7-5-4-2-|-0-0-0-0-0-0-0-0-|-6-6-6-6-6-6-6-6-|-2-2-2-2-2-2-2-2-|
|-----------------|-----------------|-----------------|-----------------|


  E E E E E E E E   E E E E E E E E   E E E E E E E E   E E E E E E E E
|-----------------|-----------------|-----------------|-----------------|
|-----------------|-----------------|-----------------|-----------------|
|-----------------|-0-0-0-0-0-0-0-0-|-6-6-6-6-6-6-6-6-|-2-2-2-2-2-2-2-2-|
|-0-0-0-0-0-0-0-0-|-----------------|-----------------|-----------------|


 Interlude
  Gtr I
         T    T            T    T              T    T            T    T
  S S S  S S  S S S S S S  S S  S S S   S S S  S S  S S S S S S  S S  S S S
|-------------------------------------|-------------------------------------|
|-------------------------------------|-------------------------------------|
|----------7-14p0h7----------7-14p0h7-|----------8-15p0h8----------8-15p0h8-|
|-0h5h7-12----------0h5h7-12----------|-0h5h7-13----------0h5h7-13----------|


         T    T            T    T              T    T            T    T
  S S S  S S  S S S S S S  S S  S S S   S S S  S S  S S S S S S  S S  S S S
|-------------------------------------|-------------------------------------|
|-------------------------------------|-------------------------------------|
|----------7-14p0h7----------7-14p0h7-|----------8-15p0h8----------8-15p0h8-|
|-0h5h7-12----------0h5h7-12----------|-0h5h7-13----------0h5h7-13----------|


         T    T            T    T              T    T            T    T
  S S S  S S  S S S S S S  S S  S S S   S S S  S S  S S S S S S  S S  S S S
|-------------------------------------|-------------------------------------|
|-------------------------------------|-------------------------------------|
|----------7-14p0h7----------7-14p0h7-|----------8-15p0h8----------8-15p0h8-|
|-0h5h7-12----------0h5h7-12----------|-0h5h7-13----------0h5h7-13----------|


         T    T            T    T              T    T        T    T
  S S S  S S  S S S S S S  S S  S S S   S S S  S S  S S S S  S S  S S S S S
|-------------------------------------|-------------------------------------|
|-------------------------------------|-------------------------------------|
|----------7-14p0h7----------7-14p0h7-|----------8-15----------8-15-----0-8-|
|-0h5h7-12----------0h5h7-12----------|-0h5h7-13------0h5h7-13------0h5-----|


 Verse
  Gtr III
   E    E    E     E    E    E     E     E
|---------------------------------------------|
|---------------------------------------------|
|---------------------------------------------|
|--0----0----0-----0----0----0-----0-----0----|
|
| Gtr II
|  S S  S  S S  S  S S  S  S S  S  S  S  S  S
|---------------------------------------------|
|---------------------------------------------|
|-16-9-14-16-9-12-16-9-14-16-9-12-16-12-14-16-|
|---------------------------------------------|
|---------------------------------------------|
|---------------------------------------------|


   E    E    E     E    E    E     E     E
|---------------------------------------------|
|---------------------------------------------|
|---------------------------------------------|
|--7----7----7-----7----7----7-----7-----7----|
|
|  S S  S  S S  S  S S  S  S S  S  S  S  S  S
|---------------------------------------------|
|---------------------------------------------|
|---------------------------------------------|
|-16-9-14-16-9-12-16-9-14-16-9-12-16-12-14-16-|
|---------------------------------------------|
|---------------------------------------------|


   E    E    E     E    E    E     E     E
|---------------------------------------------|
|---------------------------------------------|
|---------------------------------------------|
|--0----0----0-----0----0----0-----0-----0----|
|
|  S S  S  S S  S  S S  S  S S  S  S  S  S  S
|---------------------------------------------|
|---------------------------------------------|
|-16-9-14-16-9-12-16-9-14-16-9-12-16-12-14-16-|
|---------------------------------------------|
|---------------------------------------------|
|---------------------------------------------|


   E    E    E     E    E    E     E     E
|---------------------------------------------|
|---------------------------------------------|
|---------------------------------------------|
|--7----7----7-----7----7----7-----5-----7----|
|
|  S S  S  S S  S  S S  S  S S  S  S  S  S  S
|---------------------------------------------|
|---------------------------------------------|
|---------------------------------------------|
|-16-9-14-16-9-12-16-9-14-16-9-12-16-12-14-16-|
|---------------------------------------------|
|---------------------------------------------|


   E   E    E    E   E    E    E   E
|--------------------------------------|
|--------------------------------------|
|--3---3----3----3---3----3----3---3---|
|--------------------------------------|
|
|  S S S  S S S  S S S  S S S  S S S S
|--------------------------------------|
|--------------------------------------|
|-12-5-9-12-5-9-12-5-9-12-5-9-12-5-9-5-|
|--------------------------------------|
|--------------------------------------|
|--------------------------------------|


   E    E    E     E    E    E     E    E
|--------------------------------------------|
|--------------------------------------------|
|--5----5----5-----5----5----5-----5----5----|
|--------------------------------------------|
|
|  S S  S  S S  S  S S  S  S S  S  S S  S  S
|--------------------------------------------|
|--------------------------------------------|
|-14-7-11-14-7-11-14-7-11-14-7-11-14-7-11-14-|
|--------------------------------------------|
|--------------------------------------------|
|--------------------------------------------|


   E    E    E     E    E    E     E     E
|---------------------------------------------|
|---------------------------------------------|
|---------------------------------------------|
|--0----0----0-----0----0----0-----0-----0----|
|
|  S S  S  S S  S  S S  S  S S  S  S  S  S  S
|---------------------------------------------|
|---------------------------------------------|
|-16-9-14-16-9-12-16-9-14-16-9-12-16-12-14-16-|
|---------------------------------------------|
|---------------------------------------------|
|---------------------------------------------|


   E    E    E     E    E    E     E     E
|---------------------------------------------|
|---------------------------------------------|
|---------------------------------------------|
|--7----7----7-----7----7----7-----7-----7----|
|
|  S S  S  S S  S  S S  S  S S  S  S  S  S  S
|---------------------------------------------|
|---------------------------------------------|
|---------------------------------------------|
|-16-9-14-16-9-12-16-9-14-16-9-12-16-12-14-16-|
|---------------------------------------------|
|---------------------------------------------|


   E    E    E     E    E    E     E     E
|---------------------------------------------|
|---------------------------------------------|
|---------------------------------------------|
|--0----0----0-----0----0----0-----0-----0----|
|
|  S S  S  S S  S  S S  S  S S  S  S  S  S  S
|---------------------------------------------|
|---------------------------------------------|
|-16-9-14-16-9-12-16-9-14-16-9-12-16-12-14-16-|
|---------------------------------------------|
|---------------------------------------------|
|---------------------------------------------|


   E    E    E     E    E    E     E     E
|---------------------------------------------|
|---------------------------------------------|
|---------------------------------------------|
|--7----7----7-----7----7----7-----7-----7----|
|
|  S S  S  S S  S  S S  S  S S  S  S  S  S  S
|---------------------------------------------|
|---------------------------------------------|
|---------------------------------------------|
|-16-9-14-16-9-12-16-9-14-16-9-12-16-12-14-16-|
|---------------------------------------------|
|---------------------------------------------|


   E    E    E     E    E    E     E     E
|---------------------------------------------|
|---------------------------------------------|
|---------------------------------------------|
|--0----0----0-----0----0----0-----0-----0----|
|
|  S S  S  S S  S  S S  S  S S  S  S  S  S  S
|---------------------------------------------|
|---------------------------------------------|
|-16-9-14-16-9-12-16-9-14-16-9-12-16-12-14-16-|
|---------------------------------------------|
|---------------------------------------------|
|---------------------------------------------|


   E    E    E     E    E    E     E     E
|---------------------------------------------|
|---------------------------------------------|
|---------------------------------------------|
|--7----7----7-----7----7----7-----5-----7----|
|
|  S S  S  S S  S  S S  S  S S  S  S  S  S  S
|---------------------------------------------|
|---------------------------------------------|
|---------------------------------------------|
|-16-9-14-16-9-12-16-9-14-16-9-12-16-12-14-16-|
|---------------------------------------------|
|---------------------------------------------|


   E   E    E    E   E    E    E   E
|--------------------------------------|
|--------------------------------------|
|--3---3----3----3---3----3----3---3---|
|--------------------------------------|
|
|  S S S  S S S  S S S  S S S  S S S S
|--------------------------------------|
|--------------------------------------|
|-12-5-9-12-5-9-12-5-9-12-5-9-12-5-9-5-|
|--------------------------------------|
|--------------------------------------|
|--------------------------------------|


   E    E    E     E    E    E     E    E
|--------------------------------------------|
|--------------------------------------------|
|--5----5----5-----5----5----5-----5----5----|
|--------------------------------------------|
|
|  S S  S  S S  S  S S  S  S S  S  S S  S  S
|--------------------------------------------|
|--------------------------------------------|
|-14-7-11-14-7-11-14-7-11-14-7-11-14-7-11-14-|
|--------------------------------------------|
|--------------------------------------------|
|--------------------------------------------|


 Guitar Solo
  E E E E E E E E   E E E E E E E E
|-----------------|-----------------|
|-----------------|-----------------|
|-----------------|-----------------|
|-2-2-2-2-2-2-2-2-|-2-2-2-2-2-2-2-2-|


  E E E E E E E E   E E E E E E E E   E E E E E E E E   E E E E E E E E
|-----------------|-----------------|-----------------|-----------------|
|-----------------|-----------------|-----------------|-----------------|
|-----------------|-----------------|-----------------|-----------------|
|-2-2-2-2-2-2-2-2-|-2-2-2-2-2-2-2-2-|-4-4-4-4-4-4-4-4-|-4-4-4-4-4-4-4-4-|


  E E E E E E E E   E E E E E E E E   W          W          W          W
|-----------------|-----------------|----------|----------|----------|------|
|-----------------|-----------------|----------|----------|----------|------|
|-----------------|-----------------|-4--------|-4--------|-4--------|-4----|
|-4-4-4-4-4-4-4-4-|-4-4-4-4-4-4-4-4-|----------|----------|----------|------|


  W          W          W          W
|----------|----------|----------|------|
|----------|----------|----------|------|
|-6--------|-6--------|-6--------|-6----|
|----------|----------|----------|------|


  W          W          W          W
|----------|----------|----------|------|
|----------|----------|----------|------|
|----------|----------|----------|------|
|-0--------|-0--------|-7--------|-7----|


  W          W          E E H    E E   H    E E E E
|----------|----------|--------------|--------------|
|----------|----------|--------------|--------------|
|----------|----------|--------------|--------------|
|-0--------|-0--------|-7-7------8-8-|------7-7---7-|


  W          W          W          W
|----------|----------|----------|------|
|----------|----------|----------|------|
|-3--------|-5--------|-7--------|-7----|
|----------|----------|----------|------|


  W          W          W          W
|----------|----------|----------|------|
|----------|----------|----------|------|
|-7--------|-7--------|----------|------|
|----------|----------|-7--------|-7----|


  W          W          W          W
|----------|----------|----------|------|
|----------|----------|----------|------|
|----------|----------|----------|------|
|-0--------|-0--------|-7--------|-7----|


  W          W          E E E E E E E E   E E E E E E E E
|----------|----------|-----------------|-----------------|
|----------|----------|-----------------|-----------------|
|-3--------|-5--------|-----------------|-----------------|
|----------|----------|-0-0-0-0-0-0-0-0-|-0-0-0-0-0-0-0-0-|


 Bridge
  W          W          W          W
|----------|----------|----------|------|
|----------|----------|----------|------|
|----------|----------|----------|------|
|-0--------|-0--------|-0--------|-0----|


  W          W          W          W
|----------|----------|----------|------|
|----------|----------|----------|------|
|----------|----------|----------|------|
|-0--------|-0--------|-0--------|-0----|


  W          W          W          W
|----------|----------|----------|------|
|----------|----------|----------|------|
|----------|----------|-6--------|-7----|
|-7--------|-7--------|----------|------|


 Chorus
  E E E E E E E E   E E E E E E E E   E E E E E E E E   E E E E E E E E
|-----------------|-----------------|-----------------|-----------------|
|-----------------|-----------------|-----------------|-----------------|
|-7-7-7-7-7-7-7-7-|-0-0-0-0-0-0-0-0-|-6-6-6-6-6-6-6-6-|-2-2-2-2-2-2-2-2-|
|-----------------|-----------------|-----------------|-----------------|


  E E E E E E E E   E E E E E E E E   E E E E E E E E   E E E E E E E E
|-----------------|-----------------|-----------------|-----------------|
|-----------------|-----------------|-----------------|-----------------|
|-----------------|-0-0-0-0-0-0-0-0-|-6-6-6-6-6-6-6-6-|-2-2-2-2-2-2-2-2-|
|-0-0-0-0-0-0-0-0-|-----------------|-----------------|-----------------|


  E E E E E E E E   E E E E E E E E   E E E E E E E E   E E E E E E E E
|-----------------|-----------------|-----------------|-----------------|
|-----------------|-----------------|-----------------|-----------------|
|-7-7-7-7-7-5-4-2-|-0-0-0-0-0-0-0-0-|-6-6-6-6-6-6-6-6-|-2-2-2-2-2-2-2-2-|
|-----------------|-----------------|-----------------|-----------------|


  E E E E E E E E   E E E E E E E E   E E E E E E E E   E E E E E E E E
|-----------------|-----------------|-----------------|-----------------|
|-----------------|-----------------|-----------------|-----------------|
|-----------------|-0-0-0-0-0-0-0-0-|-6-6-6-6-6-6-6-6-|-2-2-2-2-2-2-2-2-|
|-0-0-0-0-0-0-0-0-|-----------------|-----------------|-----------------|


 Breakdown
  Gtr I
   T          T          T          T
   S  S  S S  S  S  S S  S  S  S S  S  S  S S
|---------------------------------------------|
|---------------------------------------------|
|---------------------------------------------|
|-19p15p12p0-19p15p12p0-19p15p12p0-19p15p12p0-|


   T          T          T          T
   S  S  S S  S  S  S S  S  S  S S  S  S  S S
|---------------------------------------------|
|---------------------------------------------|
|---------------------------------------------|
|-19p15p12p0-19p15p12p0-19p15p12p0-19p15p12p0-|


   T          T          T          T
   S  S  S S  S  S  S S  S  S  S S  S  S  S S
|---------------------------------------------|
|---------------------------------------------|
|---------------------------------------------|
|-20p15p13p0-20p15p13p0-20p15p13p0-20p15p13p0-|


   T          T          T          T
   S  S  S S  S  S  S S  S  S  S S  S  S  S S
|---------------------------------------------|
|---------------------------------------------|
|---------------------------------------------|
|-20p15p13p0-20p15p13p0-20p15p13p0-20p15p13p0-|


   T          T          T          T
   S  S  S S  S  S  S S  S  S  S S  S  S  S S
|---------------------------------------------|
|---------------------------------------------|
|---------------------------------------------|
|-19p15p12p0-19p15p12p0-19p15p12p0-19p15p12p0-|


   T          T          T          T
   S  S  S S  S  S  S S  S  S  S S  S  S  S S
|---------------------------------------------|
|---------------------------------------------|
|---------------------------------------------|
|-19p15p12p0-19p15p12p0-19p15p12p0-19p15p12p0-|


   T          T          T          T
   S  S  S S  S  S  S S  S  S  S S  S  S  S S
|---------------------------------------------|
|---------------------------------------------|
|---------------------------------------------|
|-20p15p13p0-20p15p13p0-20p15p13p0-20p15p13p0-|


   T          T          T          T
   S  S  S S  S  S  S S  S  S  S S  S  S  S S
|---------------------------------------------|
|---------------------------------------------|
|---------------------------------------------|
|-20p15p13p0-20p15p13p0-20p15p13p0-20p15p13p0-|


 Outro
  Gtr III
   E    E    E     E    E    E     E     E
|---------------------------------------------|
|---------------------------------------------|
|---------------------------------------------|
|--0----0----0-----0----0----0-----0-----0----|
|
| Gtr II
|  S S  S  S S  S  S S  S  S S  S  S  S  S  S
|---------------------------------------------|
|---------------------------------------------|
|-16-9-14-16-9-12-16-9-14-16-9-12-16-12-14-16-|
|---------------------------------------------|
|---------------------------------------------|
|---------------------------------------------|


   E    E    E     E    E    E     E     E
|---------------------------------------------|
|---------------------------------------------|
|---------------------------------------------|
|--7----7----7-----7----7----7-----7-----7----|
|
|  S S  S  S S  S  S S  S  S S  S  S  S  S  S
|---------------------------------------------|
|---------------------------------------------|
|---------------------------------------------|
|-16-9-14-16-9-12-16-9-14-16-9-12-16-12-14-16-|
|---------------------------------------------|
|---------------------------------------------|


   E    E    E     E    E    E     E     E
|---------------------------------------------|
|---------------------------------------------|
|---------------------------------------------|
|--0----0----0-----0----0----0-----0-----0----|
|
|  S S  S  S S  S  S S  S  S S  S  S  S  S  S
|---------------------------------------------|
|---------------------------------------------|
|-16-9-14-16-9-12-16-9-14-16-9-12-16-12-14-16-|
|---------------------------------------------|
|---------------------------------------------|
|---------------------------------------------|


   E    E    E     E    E    E     E     E
|---------------------------------------------|
|---------------------------------------------|
|---------------------------------------------|
|--7----7----7-----7----7----7-----5-----7----|
|
|  S S  S  S S  S  S S  S  S S  S  S  S  S  S
|---------------------------------------------|
|---------------------------------------------|
|---------------------------------------------|
|-16-9-14-16-9-12-16-9-14-16-9-12-16-12-14-16-|
|---------------------------------------------|
|---------------------------------------------|


   E   E    E    E   E    E    E   E
|--------------------------------------|
|--------------------------------------|
|--3---3----3----3---3----3----3---3---|
|--------------------------------------|
|
|  S S S  S S S  S S S  S S S  S S S S
|--------------------------------------|
|--------------------------------------|
|-12-5-9-12-5-9-12-5-9-12-5-9-12-5-9-5-|
|--------------------------------------|
|--------------------------------------|
|--------------------------------------|


   E    E    E     E    E    E     E    E
|--------------------------------------------|
|--------------------------------------------|
|--5----5----5-----5----5----5-----5----5----|
|--------------------------------------------|
|
|  S S  S  S S  S  S S  S  S S  S  S S  S  S
|--------------------------------------------|
|--------------------------------------------|
|-14-7-11-14-7-11-14-7-11-14-7-11-14-7-11-14-|
|--------------------------------------------|
|--------------------------------------------|
|--------------------------------------------|


   E    E    E     E    E    E     E     E
|---------------------------------------------|
|---------------------------------------------|
|---------------------------------------------|
|--0----0----0-----0----0----0-----0-----0----|
|
|  S S  S  S S  S  S S  S  S S  S  S  S  S  S
|---------------------------------------------|
|---------------------------------------------|
|-16-9-14-16-9-12-16-9-14-16-9-12-16-12-14-16-|
|---------------------------------------------|
|---------------------------------------------|
|---------------------------------------------|


   E    E    E     E    E    E     E     E
|---------------------------------------------|
|---------------------------------------------|
|---------------------------------------------|
|--7----7----7-----7----7----7-----7-----7----|
|
|  S S  S  S S  S  S S  S  S S  S  S  S  S  S
|---------------------------------------------|
|---------------------------------------------|
|---------------------------------------------|
|-16-9-14-16-9-12-16-9-14-16-9-12-16-12-14-16-|
|---------------------------------------------|
|---------------------------------------------|


   E    E    E     E    E    E     E     E
|---------------------------------------------|
|---------------------------------------------|
|---------------------------------------------|
|--0----0----0-----0----0----0-----0-----0----|
|
|  S S  S  S S  S  S S  S  S S  S  S  S  S  S
|---------------------------------------------|
|---------------------------------------------|
|-16-9-14-16-9-12-16-9-14-16-9-12-16-12-14-16-|
|---------------------------------------------|
|---------------------------------------------|
|---------------------------------------------|


   E    E    E     E    E    E     E     E
|---------------------------------------------|
|---------------------------------------------|
|---------------------------------------------|
|--7----7----7-----7----7----7-----7-----7----|
|
|  S S  S  S S  S  S S  S  S S  S  S  S  S  S
|---------------------------------------------|
|---------------------------------------------|
|---------------------------------------------|
|-16-9-14-16-9-12-16-9-14-16-9-12-16-12-14-16-|
|---------------------------------------------|
|---------------------------------------------|


   E    E    E     E    E    E     E     E
|---------------------------------------------|
|---------------------------------------------|
|---------------------------------------------|
|--0----0----0-----0----0----0-----0-----0----|
|
|  S S  S  S S  S  S S  S  S S  S  S  S  S  S
|---------------------------------------------|
|---------------------------------------------|
|-16-9-14-16-9-12-16-9-14-16-9-12-16-12-14-16-|
|---------------------------------------------|
|---------------------------------------------|
|---------------------------------------------|


   E    E    E     E    E    E     E     E
|---------------------------------------------|
|---------------------------------------------|
|---------------------------------------------|
|--7----7----7-----7----7----7-----5-----7----|
|
|  S S  S  S S  S  S S  S  S S  S  S  S  S  S
|---------------------------------------------|
|---------------------------------------------|
|---------------------------------------------|
|-16-9-14-16-9-12-16-9-14-16-9-12-16-12-14-16-|
|---------------------------------------------|
|---------------------------------------------|


   E   E    E    E   E    E    E   E
|--------------------------------------|
|--------------------------------------|
|--3---3----3----3---3----3----3---3---|
|--------------------------------------|
|
|  S S S  S S S  S S S  S S S  S S S S
|--------------------------------------|
|--------------------------------------|
|-12-5-9-12-5-9-12-5-9-12-5-9-12-5-9-5-|
|--------------------------------------|
|--------------------------------------|
|--------------------------------------|


   E    E    E     E    E    E     E    E
|--------------------------------------------|
|--------------------------------------------|
|--5----5----5-----5----5----5-----5----5----|
|--------------------------------------------|
|
|  S S  S  S S  S  S S  S  S S  S  S S  S  S
|--------------------------------------------|
|--------------------------------------------|
|-14-7-11-14-7-11-14-7-11-14-7-11-14-7-11-14-|
|--------------------------------------------|
|--------------------------------------------|
|--------------------------------------------|


   E    E    E     E    E    E     E     E
|---------------------------------------------|
|---------------------------------------------|
|---------------------------------------------|
|--0----0----0-----0----0----0-----0-----0----|
|
|  S S  S  S S  S  S S  S  S S  S  S  S  S  S
|---------------------------------------------|
|---------------------------------------------|
|-16-9-14-16-9-12-16-9-14-16-9-12-16-12-14-16-|
|---------------------------------------------|
|---------------------------------------------|
|---------------------------------------------|


   E    E    E     E    E    E     E     E
|---------------------------------------------*|
|---------------------------------------------*|
|--7----7----7-----7----7----7-----7-----7----*|
|---------------------------------------------*|
|
|  S S  S  S S  S  S S  S  S S  S  S  S  S  S
|---------------------------------------------*|
|---------------------------------------------*|
|---------------------------------------------*|
|-16-9-14-16-9-12-16-9-14-16-9-12-16-12-14-16-*|
|---------------------------------------------*|
|---------------------------------------------*|



Duration Legend
---------------
W - whole; H - half; Q - quarter; E - 8th; S - 16th; T - 32nd; X - 64th; a - acciaccatura
+ - note tied to previous; . - note dotted; .. - note double dotted
Uncapitalized letters represent notes that are staccato (1/2 duration)
Irregular groupings are notated above the duration line
Duration letters will always appear directly above the note/fret number it represents the
duration for.  Duration letters with no fret number below them represent rests.  Multi-
bar rests are notated in the form Wxn, where n is the number of bars to rest for.  Low
melody durations appear below the staff

Tablature Legend
----------------
 h   - hammer-on
 p   - pull-off
 b   - bend
 pb  - pre-bend
 r   - bend release (if no number after the r, then release immediately)
 /\  - slide into or out of (from/to "nowhere")
 s   - legato slide
 S   - shift slide
 - natural harmonic
[n]  - artificial harmonic
n(n) - tapped harmonic
 ~   - vibrato
 tr  - trill
 T   - tap
 TP  - trem. picking
 PM  - palm muting
\n/  - tremolo bar dip; n = amount to dip
 \n  - tremolo bar down
 n/  - tremolo bar up
/n\  - tremolo bar inverted dip
 =   - hold bend; also acts as connecting device for hammers/pulls
 <> - volume swell (louder/softer)
 x   - on rhythm slash represents muted slash
 o   - on rhythm slash represents single note slash

Misc Legend
-----------
 |  - bar
||  - double bar
||o - repeat start
o|| - repeat end
*|  - double bar (ending)
 :  - bar (freetime)
 $  - Segno
 &  - Coda
Tempo markers -  = BPM(8/16=s8/s16), where s8 = swing 8ths, s16 = swing 16ths


            
            
Suggest correction
Creating personal tab
Creating personal tab
You can edit any tab online and save it as your Personal.

You can edit, replace or remove any tab part or add personal notes – all changes will be seen only by you.

Personal tabs can be accessed anytime from any device, even offline.
Learn more »
Give kudos to tab author, rate the tab!
1 2 3 4 5
comments
print report bad tab
guest
You may want to rate the tab now too:
select rating
Wanna post a correction for this tab? Suggest correction