Oops, an error
Loading. Please wait.
We have an official Kids tab made by UG professional guitarists. Check out the tab »
×

Kids Acoustic ukulele

by MGMT
406 views 36 this week
no commentswrite comment
1 2 3 4 5
x 5
add to favorites
×
Save as Personal and add changes to this tab that will be seen only by you. Learn more ›
×
You can save this tab as Personal to edit and correct it or add notes. All changes will be seen only by you. Learn more »
launch autoscroll
font size
0
reset
transpose
0
reset
display chords
guitar tuner
backing track
0:00
0:00
edit
Autoscroll
slow
fast
+/-
esc
set tempo
stop
Author
Difficulty
About this tab version
Ukulele picking and strumming for the chorus and intro. Was this info helpful? Yes No
Strumming
There is no strumming pattern for this song yet. and get +5 IQ
[Intro riff]     
    F#m            D               A      E
A|--------4-7------9---11--9------------------------------|
E|---5--7--------------------12----9------7---------------|
C|--------------------------------------------------------|
G|--------------------------------------------------------| 

    F#m            D               A      
A|--------4-7------9---11--9------------------------------|
E|---5--7--------------------12----9----------------------|
C|--------------------------------------------------------|
G|--------------------------------------------------------|

[Intro Contin./Chorus]
    F#m            D               A      E
A|---4----4-7------9---11--9-------7------7---------------|
E|---5--7----------10--------12----9------7---------------|
C|---6-------------9---------------9------8---------------|
G|---4-----------------------------9------9---------------|       

     F#m           D               A      E
A|---4----4-7------9---11--9-------7------7---------------|
E|---5--7----------10--------12----9------10--9--7---7----|
C|---6-------------9---------------9------8--------9------|
G|---4-----------------------------9------7---------------|

         
    F#m            D               A      E
A|---4----4-7------9---11--9-------7------7---------------|
E|---5--7----------10--------12----9------7---------------|
C|---6-------------9---------------9------8---------------|
G|---4-----------------------------9------9---------------|

         
    F#m            D            A      E
A|---4----4--------5------------4------5--4--------------|
E|---5--7---7------5--7--5------5------4-----7--5--7-----|
C|---6-------------6-------6----4------4-----------------|
G|---4-------------7------------6------4-----------------|

[Verse 1]
F#m           D
   You were a child
                 A               E
Crawling on your knees toward him
F#m                D
   Making momma so proud
A                        E      F#m     D
   But your voice is too loud
                 A             E
We like to watch you laughing
F#m                         D
   You pick the insects off plants
A                            E
   No time to think of consequences

[Chorus]
F#m                 
   Control yourself
D                     A            E
   Take only what you need from it
F#m             D            A            E
    A family of trees wanting to be haunted

F#m                 
   Control yourself
D                     A            E
   Take only what you need from it
F#m             D            A            E
    A family of trees wanting to be haunted

[Verse 2]
F#m              D
    The water is warm
                 A           E
But it's sending me shivers
F#m            D
     A baby is born
A                 E
   Crying out for attention
F#m          D
    Memories fade
                       A             E
Like looking through a fogged mirror
  F#m                     D
Decision to decisions are made and not bought
      A
But I thought 
              E
This wouldn't hurt a lot I guess not

[Chorus]
F#m                 
   Control yourself
D                     A            E
   Take only what you need from it
F#m             D            A            E
    A family of trees wanting to be haunted

F#m                 
   Control yourself
D                     A            E
   Take only what you need from it
F#m             D            A            E
    A family of trees wanting to be haunted

[Chorus]
F#m                 
   Control yourself
D                     A            E
   Take only what you need from it
F#m             D            A            E
    A family of trees wanting to be haunted

F#m                 
   Control yourself
D                     A            E
   Take only what you need from it
F#m             D            A            E
    A family of trees wanting to be haunted

F#m                 
   Control yourself
D                     A            E
   Take only what you need from it
F#m             D            A            E
    A family of trees wanting to be haunted

F#m                 
   Control yourself
D                     A            E
   Take only what you need from it
F#m             D            A            E
    A family of trees

            
            
Suggest correction
Creating personal tab
Creating personal tab
You can edit any tab online and save it as your Personal.

You can edit, replace or remove any tab part or add personal notes – all changes will be seen only by you.

Personal tabs can be accessed anytime from any device, even offline.
Learn more »
comments
print report bad tab
guest
You may want to rate the tab now too:
select rating
Wanna post a correction for this tab? Suggest correction