Oops, an error
Loading. Please wait.

Rain Forest tab

version 1
version 1

Whole song

6,967 views 3 this week
3 commentsread comments
1 2 3 4 5
x 4
add to favorites
×
Save as Personal and add changes to this tab that will be seen only by you. Learn more ›
×
You can save this tab as Personal to edit and correct it or add notes. All changes will be seen only by you. Learn more »
launch autoscroll
font size
0
reset
how to read this tab
guitar tuner
edit
Autoscroll
slow
fast
+/-
esc
set tempo
stop
Author
Difficulty
-------------------------------------------------------------------------------
                             Rain Forest - Michael Angelo Batio
-------------------------------------------------------------------------------
Tabbed by: SupremeACL
Email: supremeacl@aim.com
This is Rain Forest off the album No Boundaries. Not quite the whole song, but it's
than nothing eh? There were no tabs for this, so I figured I'd add my own. This song is in
key of A Harmonic Minor and/or E Phrygian Dominant (the two keys have the same notes 
Phrygian Dominant is the fifth mode of the Harmonic Minor scale). this is my first tab.

Tuning: E flat (Eb, Bb, Gb, Db, Ab, Eb)

   Gtr I Overdrive/Light Dist.
    PM-----------------------------|    Repeat this a few times.
eb|--------------------------------|
Bb|--------------------------------|
Gb|-----------1-2-1----------------|
Db|----2-3-2-----------------------|
Ab|--2---------------2-3-2---------|
Eb|-------------------------1-4-0--|

   Gtr II Heavy Dist.                 And repeat. He throws in some pinch
                                                  harmonics here and there.
eb|---------------------------------------------------------------------------|
Bb|---------------------------------------------------------------------------|
Gb|-----------1-2-1-----------------------------------------------------------|
Db|----2-3-2-----------------3-6----------------------------------------------|
Ab|--2---------------2-3-2---3-6----------------------------------------------|
Eb|--------------------------1-4-0--------------------------------------------|

That's it. Maybe someone will finish the rest. =] Cheers and good playing!

            
            
Suggest correction
Creating personal tab
Creating personal tab
You can edit any tab online and save it as your Personal.

You can edit, replace or remove any tab part or add personal notes – all changes will be seen only by you.

Personal tabs can be accessed anytime from any device, even offline.
Learn more »
comments
print report bad tab
3 comments total.
0 reply
Triviumfan54 31 Jun 18, 2007 03:11 AM

theres not much of it here, you could do with finding out more about the song so people who want to learn it can learn it in full, its very annoying when songs like this arent tabbed out in full.

0 reply
Ralbert07 10 Sep 02, 2007 10:00 AM

I'm Critiquing again. "Play this a few times" thats all you have to say?!?!?!?

0 reply
JULI0 237 Nov 20, 2007 06:30 AM

he taught this exact piece in his column

guest
You may want to rate the tab now too:
select rating
Wanna post a correction for this tab? Suggest correction