Oops, an error
Loading. Please wait.

To Alpha Sector 2 tab

version 1
version 1

Whole song

Interactive

436 views 1 this week
no commentswrite comment
1 2 3 4 5
3 more votes to show rating
add to favorites
×
Save as Personal and add changes to this tab that will be seen only by you. Learn more ›
×
You can save this tab as Personal to edit and correct it or add notes. All changes will be seen only by you. Learn more »
launch autoscroll
font size
0
reset
how to read this tab
guitar tuner
edit
Autoscroll
slow
fast
+/-
esc
set tempo
stop
#----------------------------------PLEASE NOTE---------------------------------#
#This file is the author's own work and represents their interpretation of the #
#song. You may only use this file for private study, scholarship, or research. #
#------------------------------------------------------------------------------#

TO ALPHA SECTOR 2
As recorded by Michael Angelo
(From the 1997 Album PLANET GEMINI)


Transcribed by Kaleb

 Music by Michael Angelo Batio

 

F#5
2 4 x x x x 

A5
x 0 2 x x x 

C5
x 3 5 x x x 

B5
x 2 4 x x x 

C#5
x 4 6 x x x 

Bb5
x 1 3 x x x 

F5
1 3 x x x x 

G#5
4 6 x x x x 

Emaj7/Ab
4 6 2 x x x 

E5
0 2 x x x x 

G5
3 5 x x x x 

B5/F#
2 2 4 x x x 

D5
x 5 7 x x x 


Gtr I (E A D G B E) - 'Rhythm Guitar'
Gtr II (E A D G B E) - 'Lead Guitar I'
Gtr III (E A D G B E) - 'Lead Guitar II'
Gtr IV (E A D G B E) - 'Acoustic Guitar (Steel-String)'
Gtr V (E A D G B E) - 'Harmony Guitar'
Gtr VI (E A D G B E) - 'Fiddle'


 Intro (Riff A)
  Q=142
  E5      B5   C#B5Bb5                        F#5             A5
 1/4     4/4             7/8                 6/8
  Gtr I
                                              PM------------|
   Q      Q.   E E Q  E   +E  Q  E +E  Q      E E S S S S S S E
|------||---------------|-----------------||--------------------|
|------||---------------|-----------------||o-------------------|
|------||---------------|-----------------||--------------------|
|------||-4----6-4-3--3-|-(3)-3--3-(3)-3--||------------------2-|
|-14\--||-2----4-2-1--1-|-(1)-1--1-(1)-1--||o-4-4-4-4-4-4-4-4-0-|
|-12\--||---------------|-----------------||--2-2-2-2-2-2-2-2---|


  F#5             C5    F#5             A5  F#5   C5
 7/8                   6/8                 5/8
  PM------------|       PM------------|     PM--|
  E E S S S S S S E E   E E S S S S S S E   E E E E E
|---------------------|-------------------|------------||
|---------------------|-------------------|-----------o||
|---------------------|-------------------|------------||
|-----------------5-5-|-----------------2-|-------5-5--||
|-4-4-4-4-4-4-4-4-3-3-|-4-4-4-4-4-4-4-4-0-|-4-4-4-3-3-o||
|-2-2-2-2-2-2-2-2-----|-2-2-2-2-2-2-2-2---|-2-2-2------||


 Guitar Solo 1
  F#5                                               A5
 6/8
  Gtr I
   E       E        S    S     S    S     S    S     E
   |       |        |    |     |    |     |    |     |
   /       /        /    /     /    /     /    /     /

  Gtr II
   |------5------|  |--------6---------|  |-------6--------|
   S  S  S    S  S  S  S    S  S  S    S  S  S    S  S  S  S
|------------------------------------------------------------|
|------------------------------------------------------------|
|-16-17-18---17-16----16---17-18-17---16----16---17-18-17-16-|
|------------------19--------------------19------------------|
|------------------------------------------------------------|
|------------------------------------------------------------|


  F#5                                                C5
 7/8
   E        E        S    S     S    S     S    S     E        E
   |        |        |    |     |    |     |    |     |        |
   /        /        /    /     /    /     /    /     /        /

   |------6-------|  |--------6---------|  |-------6--------|  |--3--|
   S  S  S  S  S  S  S  S    S  S  S    S  S  S    S  S  S  S  S  S  S
|-------------------14-16---17-14--------------------14-16-17-----------|
|----------14-16-17---------------17---16-14-16---17----------16-17-19--|
|----16-17--------------------------------------------------------------|
|-19--------------------------------------------------------------------|
|-----------------------------------------------------------------------|
|-----------------------------------------------------------------------|


  F#5                                                A5
 6/8
   E        E        S    S     S    S     S    S     E
   |        |        |    |     |    |     |    |     |
   /        /        /    /     /    /     /    /     /

  Gtr II
   |------6-------|  |--------6---------|  |-------6--------|
   S  S  S  S  S  S  S  S    S  S  S    S  S  S    S  S  S  S
|-16-17-19-17-16------------------16---17-19------------17-19-|
|----------------19-17-16---17-19------------17---19-21-------|
|-------------------------------------------------------------|
|-------------------------------------------------------------|
|-------------------------------------------------------------|
|-------------------------------------------------------------|


  F#5                               C5
 5/8
   E          E          E          E          E
   |          |          |          |          |
   /          /          /          /          /

   |----------8:5-----------|  |----------8:5-----------|
   S  S  S  S    S  S  S    S  S  S    S  S  S    S  S  S
|-21-19-17-------------------------------------------------|
|----------21---19-17--------------------------------------|
|---------------------18---16-14--------------------14-16--|
|--------------------------------18---16-14-16---18--------|
|----------------------------------------------------------|
|----------------------------------------------------------|


  F#5                                               A5
 6/8
   E        E        S    S    S    S     S    S     E
   |        |        |    |    |    |     |    |     |
   /        /        /    /    /    /     /    /     /

   |------6-------|  |--------5--------|  |-------6--------|
   S  S  S  S  S  S  S  S    S    S    S  S  S    S  S  S  S
|------------------------------------------------------------|
|------------------------------------------------------------|
|-18-16-14---------------------------------------------------|
|----------18-16-14------------------------------------------|
|-------------------16-14---12----------------------12-14-16-|
|--------------------------------16---14-12-14---16----------|


  F#5                                                  C5
 7/8
   E       E          S    S      S    S     S    S    E          E
   |       |          |    |      |    |     |    |    |          |
   /       /          /    /      /    /     /    /    /          /

   |----------------11:8------------------|  |-----------8:6------------|
   S  S  S    S  S  S    S   S  S    S    S  S  S    S    S  S  S    S  S
|--------------------------------------------------------------------------|
|--------------------------------------------------------------------------|
|-------------------------------------------16-15---14---13-17-16---15-14--|
|------------------------------16---15---14--------------------------------|
|------------12-16-15---14---x---------------------------------------------|
|-12-14-16-----------------------------------------------------------------|


  F#5                                                   A5
 6/8
   E        E        S    S     S    S     S    S       E
   |        |        |    |     |    |     |    |       |
   /        /        /    /     /    /     /    /       /

   |------6-------|  |--------6---------|  |----------7----------|
   S  S  S  S  S  S  S  S    S  S  S    S  S  S    S  S    S  S  S
|-------------17-16-15-14------------------------------------------|
|-17-16-15-14---------------17-16-15---14----14--------------------|
|-----------------------------------------17------17-16---14-16-17-|
|------------------------------------------------------------------|
|------------------------------------------------------------------|
|------------------------------------------------------------------|


  F#5                     C5
 5/8
   E        E        E    E E
   |        |        |    | |
   /        /        /    / /

                     ~~~~~
   |------6-------|
   S  S  S  S  S  S  Q.
|------------------------------||
|-14-------14-------17b19------||
|----17-16----17-16------------||
|------------------------------||
|------------------------------||
|------------------------------||


 Neo-Classical Section
  N.C.
 11/8
  S S S S  S S S S  S S S S  S S S S S  S S S S  S
|-7----------------10--------9-------7-------------|
|---8-7-8-10-8-7-8----8-7-8----8-7-8---10-8-7-8-10-|
|--------------------------------------------------|
|--------------------------------------------------|
|--------------------------------------------------|
|--------------------------------------------------|
|
| Gtr V
| S S S S  S S S S  S S S S  S S S S S  S S S S  S
|-------------------7------------------------------|
|-8--------7----------------10-------8--7--------7-|
|---9-7-9----9-7-9----9-7-9----9-7-9------9-7-9----|
|--------------------------------------------------|
|--------------------------------------------------|
|--------------------------------------------------|
|
| Gtr III
| S S S S  S S S S  S S S S  S S S S S  S S S S  S
|--------------------------------------------------|
|--------------------------------------------------|
|-4-----------------7--------6-------4-------------|
|---5-4-5--7-5-4-5----5-4-5----5-4-5----7-5-4-5--7-|
|--------------------------------------------------|
|--------------------------------------------------|


                                      |------9:6-------|
  S S S S  S S S S  S S S S  S S S S  S S S  S S S S S S
|-7----------------10--------9-------10-9-7--------------|
|---8-7-8-10-8-7-8----8-7-8----8-7-8--------10-8-7-------|
|--------------------------------------------------9-7-6-|
|--------------------------------------------------------|
|--------------------------------------------------------|
|--------------------------------------------------------|
|
|                                     |------9:6-------|
| S S S S  S S S S  S S S S  S S S S  S S S  S S S S S S
|-------------------7-----------------7-5-3--------------|
|-8--------7----------------10---------------7-5-3-------|
|---9-7-9----9-7-9----9-7-9----9-7-9---------------6-4-3-|
|--------------------------------------------------------|
|--------------------------------------------------------|
|--------------------------------------------------------|
|
|                                     |------9:6-------|
| S S S S  S S S S  S S S S  S S S S  S S S  S S S S S S
|--------------------------------------------------------|
|--------------------------------------------------------|
|-4-----------------7--------6--------7-6-4--------------|
|---5-4-5--7-5-4-5----5-4-5----5-4-5---------7-5-4-------|
|--------------------------------------------------7-5-4-|
|--------------------------------------------------------|


  S S S S  S S S S  S S S S  S S S S S  S S S S  S
|-7----------------10--------9-------7-------------|
|---8-7-8-10-8-7-8----8-7-8----8-7-8---10-8-7-8-10-|
|--------------------------------------------------|
|--------------------------------------------------|
|--------------------------------------------------|
|--------------------------------------------------|
|
| S S S S  S S S S  S S S S  S S S S S  S S S S  S
|-------------------7------------------------------|
|-8--------7----------------10-------8--7--------7-|
|---9-7-9----9-7-9----9-7-9----9-7-9------9-7-9----|
|--------------------------------------------------|
|--------------------------------------------------|
|--------------------------------------------------|
|
| S S S S  S S S S  S S S S  S S S S S  S S S S  S
|--------------------------------------------------|
|--------------------------------------------------|
|-4-----------------7--------6-------4-------------|
|---5-4-5--7-5-4-5----5-4-5----5-4-5----7-5-4-5--7-|
|--------------------------------------------------|
|--------------------------------------------------|


                                     |------9:6------|
  S S S S  S S S S  S S S S  S S S S S S S S S S S S S
|-7----------------10--------9---------------------------|
|---8-7-8-10-8-7-8----8-7-8----8-7-8---------------------|
|------------------------------------7-6-4---------------|
|------------------------------------------7-5-4---------|
|------------------------------------------------7-5-4---|
|--------------------------------------------------------|
|
|                                    |------9:6------|
| S S S S  S S S S  S S S S  S S S S S S S S S S S S S
|-------------------7------------------------------------|
|-8--------7----------------10---------------------------|
|---9-7-9----9-7-9----9-7-9----9-7-9---------------------|
|------------------------------------9-7-5---------------|
|------------------------------------------9-7-5---------|
|------------------------------------------------9-7-5---|
|
|                                    |------9:6------|
| S S S S  S S S S  S S S S  S S S S S S S S S S S S S
|--------------------------------------------------------|
|--------------------------------------------------------|
|-4-----------------7--------6---------------------------|
|---5-4-5--7-5-4-5----5-4-5----5-4-5---------------------|
|------------------------------------5-4-2-------7-5-4---|
|------------------------------------------5-3-2---------|


  S S S S  S S S S  S S S S  S S S S S  S S S S  S
|-7----------------10--------9-------7-------------|
|---8-7-8-10-8-7-8----8-7-8----8-7-8---10-8-7-8-10-|
|--------------------------------------------------|
|--------------------------------------------------|
|--------------------------------------------------|
|--------------------------------------------------|
|
| S S S S  S S S S  S S S S  S S S S S  S S S S  S
|-------------------7------------------------------|
|-8--------7----------------10-------8--7--------7-|
|---9-7-9----9-7-9----9-7-9----9-7-9------9-7-9----|
|--------------------------------------------------|
|--------------------------------------------------|
|--------------------------------------------------|
|
| S S S S  S S S S  S S S S  S S S S S  S S S S  S
|--------------------------------------------------|
|--------------------------------------------------|
|-4-----------------7--------6-------4-------------|
|---5-4-5--7-5-4-5----5-4-5----5-4-5----7-5-4-5--7-|
|--------------------------------------------------|
|--------------------------------------------------|


                                      |------9:6-------|
  S S S S  S S S S  S S S S  S S S S  S S S  S S S S S S
|-7----------------10--------9-------10-9-7----------------|
|---8-7-8-10-8-7-8----8-7-8----8-7-8--------10-8-7---------|
|--------------------------------------------------9-7-6---|
|----------------------------------------------------------|
|----------------------------------------------------------|
|----------------------------------------------------------|
|
|                                     |------9:6-------|
| S S S S  S S S S  S S S S  S S S S  S S S  S S S S S S
|-------------------7-----------------7-5-3----------------|
|-8--------7----------------10---------------7-5-3---------|
|---9-7-9----9-7-9----9-7-9----9-7-9---------------6-4-2---|
|----------------------------------------------------------|
|----------------------------------------------------------|
|----------------------------------------------------------|
|
|                                     |------9:6-------|
| S S S S  S S S S  S S S S  S S S S  S S S  S S S S S S
|----------------------------------------------------------|
|----------------------------------------------------------|
|-4-----------------7--------6--------7-6-4----------------|
|---5-4-5--7-5-4-5----5-4-5----5-4-5---------7-5-4---------|
|--------------------------------------------------7-5-4---|
|----------------------------------------------------------|


  S S S S  S S S S  S S S S  S S S S S  S S S S  S
|-7----------------10--------9-------7-------------|
|---8-7-8-10-8-7-8----8-7-8----8-7-8---10-8-7-8-10-|
|--------------------------------------------------|
|--------------------------------------------------|
|--------------------------------------------------|
|--------------------------------------------------|
|
| S S S S  S S S S  S S S S  S S S S S  S S S S  S
|-------------------7------------------------------|
|-8--------7----------------10-------8--7--------7-|
|---9-7-9----9-7-9----9-7-9----9-7-9------9-7-9----|
|--------------------------------------------------|
|--------------------------------------------------|
|--------------------------------------------------|
|
| S S S S  S S S S  S S S S  S S S S S  S S S S  S
|--------------------------------------------------|
|--------------------------------------------------|
|-4-----------------7--------6-------4-------------|
|---5-4-5--7-5-4-5----5-4-5----5-4-5----7-5-4-5--7-|
|--------------------------------------------------|
|--------------------------------------------------|


                                      |------9:6------|
  S S S S  S S S S  S S S S  S S S S  S S S S S S S S S
|-7----------------10--------9--------9-7-5---------------|
|---8-7-8-10-8-7-8----8-7-8----8-7-8--------8-7-5---------|
|-------------------------------------------------7-6-4---|
|---------------------------------------------------------|
|---------------------------------------------------------|
|---------------------------------------------------------|
|
|                                     |------9:6------|
| S S S S  S S S S  S S S S  S S S S  S S S S S S S S S
|-------------------7-------------------------------------|
|-8--------7----------------10-------10-8-7---------------|
|---9-7-9----9-7-9----9-7-9----9-7-9--------9-7-6---------|
|-------------------------------------------------9-7-5---|
|---------------------------------------------------------|
|---------------------------------------------------------|
|
|                                     |------9:6------|
| S S S S  S S S S  S S S S  S S S S  S S S S S S S S S
|---------------------------------------------------------|
|---------------------------------------------------------|
|-4-----------------7--------6--------6-4-2---------------|
|---5-4-5--7-5-4-5----5-4-5----5-4-5--------5-4-2---------|
|-------------------------------------------------5-4-2---|
|---------------------------------------------------------|


   S  S S  S  S  S S  S  S  S S  S  S  S S  S  S  S  S S  S  S
|--9--------------------12---------11----------9---------------|
|----10-9-10-12-10-9-10----10-9-10----10-9-10----12-10-9-10-12-|
|--------------------------------------------------------------|
|--------------------------------------------------------------|
|--------------------------------------------------------------|
|--------------------------------------------------------------|
|
|  S  S S  S  S  S S  S  S  S S  S  S  S S  S  S  S  S S  S  S
|------------------------9-------------------------------------|
|-10----------9--------------------12---------10--9----------9-|
|----11-9-11----11-9-11----11-9-11----11-9-11-------11-9-11----|
|--------------------------------------------------------------|
|--------------------------------------------------------------|
|--------------------------------------------------------------|
|
|  S  S S  S  S  S S  S  S  S S  S  S  S S  S  S  S  S S  S  S
|--------------------------------------------------------------|
|--------------------------------------------------------------|
|--6---------------------9----------8----------6---------------|
|-----7-6--7--9--7-6--7-----7-6--7-----7-6--7-----9--7-6--7--9-|
|--------------------------------------------------------------|
|--------------------------------------------------------------|


                                               |-------9:6-------|
   S  S S  S  S  S S  S  S  S S  S  S  S S  S  S S S  S S S  S S S
|--9--------------------12---------11---------11-9-7----------------|
|----10-9-10-12-10-9-10----10-9-10----10-9-10--------10-9-7---------|
|------------------------------------------------------------9-8-6--|
|-------------------------------------------------------------------|
|-------------------------------------------------------------------|
|-------------------------------------------------------------------|
|
|                                              |-------9:6-------|
|  S  S S  S  S  S S  S  S  S S  S  S  S S  S  S S S  S S S  S S S
|------------------------9------------------------------------------|
|-10----------9--------------------12-------------------------------|
|----11-9-11----11-9-11----11-9-11----11-9-11-----------------------|
|---------------------------------------------11-9-7----------------|
|----------------------------------------------------11-9-7---------|
|-----------------------------------------------------------11-9-7--|
|
|                                              |-------9:6-------|
|  S  S S  S  S  S S  S  S  S S  S  S  S S  S  S S S  S S S  S S S
|-------------------------------------------------------------------|
|-------------------------------------------------------------------|
|--6---------------------9----------8-------------------------------|
|-----7-6--7--9--7-6--7-----7-6--7-----7-6--7-----------------------|
|----------------------------------------------7-6-4---------9-7-6--|
|-----------------------------------------------------7-5-4---------|


   S  S  S  S  S  S  S  S  S  S  S  S  S  S  S  S  S  S  S  S  S  S
|-11----------------------14----------13----------11----------------|
|----12-11-12-14-12-11-12----12-11-12----12-11-12----14-12-11-12-14-|
|-------------------------------------------------------------------|
|-------------------------------------------------------------------|
|-------------------------------------------------------------------|
|-------------------------------------------------------------------|
|
|  S  S  S  S  S  S  S  S  S  S  S  S  S  S  S  S  S  S  S  S  S  S
|-------------------------11----------------------------------------|
|-12----------11----------------------14----------12-11----------11-|
|----13-11-13----13-11-13----13-11-13----13-11-13-------13-11-13----|
|-------------------------------------------------------------------|
|-------------------------------------------------------------------|
|-------------------------------------------------------------------|
|
|  S  S  S  S  S  S  S  S  S  S  S  S  S  S  S  S  S  S  S  S  S  S
|-------------------------------------------------------------------|
|-------------------------------------------------------------------|
|--8----------------------11----------10-----------8----------------|
|-----9--8--9-11--9--8--9-----9--8--9-----9--8--9----11--9--8--9-11-|
|-------------------------------------------------------------------|
|-------------------------------------------------------------------|


                                                   |----------9:6----------|
   S  S  S  S  S  S  S  S  S  S  S  S  S  S  S  S  S  S  S  S  S  S  S  S  S
|-11----------------------14----------13----------14-13-11-------------------|
|----12-11-12-14-12-11-12----12-11-12----12-11-12----------14-12-11----------|
|-------------------------------------------------------------------13-11-10-|
|----------------------------------------------------------------------------|
|----------------------------------------------------------------------------|
|----------------------------------------------------------------------------|
|
|                                                  |----------9:6----------|
|  S  S  S  S  S  S  S  S  S  S  S  S  S  S  S  S  S  S  S  S  S  S  S  S  S
|-------------------------11-------------------------------------------------|
|-12----------11----------------------14-------------------------------------|
|----13-11-13----13-11-13----13-11-13----13-11-13----------------------------|
|-------------------------------------------------13-11--9-------------------|
|----------------------------------------------------------13-11--9----------|
|-------------------------------------------------------------------13-11--9-|
|
|                                                  |----------9:6----------|
|  S  S  S  S  S  S  S  S  S  S  S  S  S  S  S  S  S  S  S  S  S  S  S  S  S
|----------------------------------------------------------------------------|
|----------------------------------------------------------------------------|
|--8----------------------11----------10-------------------------------------|
|-----9--8--9-11--9--8--9-----9--8--9-----9--8--9----------------------------|
|--------------------------------------------------9--8--6----------11--9--8-|
|-----------------------------------------------------------9--7--6----------|


 15/8
   S  S  S  S  S  S  S  S  S  S  S  S  S  S  S  S  S  S  S  S  S  S  S  S  S  S  S  S  S  S
|-12----------------13----------------14----------------15----------------16----------------||
|----15-13-12-13-15----16-14-13-14-16----17-15-14-15-17----18-16-15-16-18----19-17-16-17-19-||
|-------------------------------------------------------------------------------------------||
|-------------------------------------------------------------------------------------------||
|-------------------------------------------------------------------------------------------||
|-------------------------------------------------------------------------------------------||
|
|  S  S  S  S  S  S  S  S  S  S  S  S  S  S  S  S  S  S  S  S  S  S  S  S  S  S  S  S  S  S
|--9----------------10----------------11----------------12----------------13----------------||
|----12-10--9-10-12----13-11-10-11-13----14-12-11-12-14----15-13-12-13-15----16-14-13-14-16-||
|-------------------------------------------------------------------------------------------||
|-------------------------------------------------------------------------------------------||
|-------------------------------------------------------------------------------------------||
|-------------------------------------------------------------------------------------------||
|
|  S  S  S  S  S  S  S  S  S  S  S  S  S  S  S  S  S  S  S  S  S  S  S  S  S  S  S  S  S  S
|-------------------------------------------------------------------------------------------||
|-------------------------------------------------------------------------------------------||
|-------------------------------------------------------------------------------------------||
|--5-----------------6-----------------7-----------------8-----------------9----------------||
|-----8--6--5--6--8-----9--7--6--7--9----10--8--7--8-10----11--9--8--9-11----12-10--9-10-12-||
|-------------------------------------------------------------------------------------------||


  B5                          C#5      B5       Bb5
 4/4
  Gtr I
   Q.                          E        E        Q                 E
   |                           |        |        |                 |
   /                           /        /        /                 /

   |-------6-------|  |------6-------|  |------6-------|  |------6-------|
   S   S  S  S  S  S  S  S  S  S  S  S  S  S  S  S  S  S  S  S  S  S  S  S
|-22--21-19----------22-21-19-24-22-21-22-21-19-21-20-18-------------------|
|-----------22-20-19-------------------------------------21-19-18----------|
|-----------------------------------------------------------------18-17-15-|
|--------------------------------------------------------------------------|
|--------------------------------------------------------------------------|
|--------------------------------------------------------------------------|


 7/8
  +E        Q                 E       +E        Q
   |        |                 |        |        |
   /        /                 /        /        /

   |------6-------|  |------6-------|  |------6-------|  |--3--|
   S  S  S  S  S  S  S  S  S  S  S  S  S  S  S  S  S  S  S  S  S
|----------------------------------------------21-20-18-----------||
|-------------------------------------------------------21-19-18--||
|----------------------------18-17-15-----------------------------||
|-18-16-15----------------------------18-16-15--------------------||
|----------16-15-13-----------------------------------------------||
|-------------------16-14-13--------------------------------------||


 Riff A
  F#5                 A5  F#5              C5    F#5              A5
 6/8                     7/8                    6/8
   E    E S S S S S S E   E E S S S S S  S E E   E  E S S S S S S E
   |    | | | | | | | |   | | | | | | |  | | |   |  | | | | | | | |
   /    / / / / / / / /   / / / / / / /  / / /   /  / / / / / / / /

   H.                     H           Q.         H.
|-----------------------|----------------------|--------------------|
|-17b19-----------------|----------------------|--------------------|
|-----------------------|----------------------|--------------------|
|-----------------------|----------------------|--------------------|
|-----------------------|----------------------|--------------------|
|-----------------------|----------------------|--------------------|


  F#5   C5    F#5             A5  F#5             C5    F#5             A5
 5/8         6/8                 7/8                   6/8
  Gtr I
  PM--|       PM------------|     PM------------|       PM------------|
  E E E E E   E E S S S S S S E   E E S S S S S S E E   E E S S S S S S E
|-----------|-------------------|---------------------|-------------------|
|-----------|-------------------|---------------------|-------------------|
|-----------|-------------------|---------------------|-------------------|
|-------5-5-|-----------------2-|-----------------5-5-|-----------------2-|
|-4-4-4-3-3-|-4-4-4-4-4-4-4-4-0-|-4-4-4-4-4-4-4-4-3-3-|-4-4-4-4-4-4-4-4-0-|
|-2-2-2-----|-2-2-2-2-2-2-2-2---|-2-2-2-2-2-2-2-2-----|-2-2-2-2-2-2-2-2---|


                Arpeggios
  F#5    C5      F#5                           A5
 5/8            6/8
  Gtr I
  E E E  E E      E     E     S  S  S  S  S  S  E
  | | |  | |      |     |     |  |  |  |  |  |  |
  / / /  / /      /     /     /  /  /  /  /  /  /

                 Gtr II
  Q   Q.          S  S  S  S  S  S  S  S  S  S  S  S
|------------||--17p14----------------14-17p14-------|
|------------||o-------------------------------------|
|------------||--------18p14----14h18----------18p14-|
|------------||--------------16----------------------|
|------------||o-------------------------------------|
|------------||--------------------------------------|


  F#5                           C5
 7/8
   E     E     S  S  S  S  S  S  E     E
   |     |     |  |  |  |  |  |  |     |
   /     /     /  /  /  /  /  /  /     /

   S  S  S  S  S  S  S  S  S  S  S  S  S  S
|-17p14----------------14-17p14-------------|
|-------------------------------17p13-------|
|-------18p14----14h18----------------------|
|-------------16----------------------17p14-|
|-------------------------------------------|
|-------------------------------------------|


                                          1.
  F#5                           A5         F#5               C5
 6/8                                      5/8
   E     E     S  S  S  S  S  S  E          E     E     E     E     E
   |     |     |  |  |  |  |  |  |          |     |     |     |     |
   /     /     /  /  /  /  /  /  /          /     /     /     /     /

                                 |--3--|
   S  S  S  S  S  S  S  S  S  S  S  S  S    S  S  S  S  S  S  S  S  S  S
|-17p14----------------14-17p14-------17-|-21p17--------------------------||
|----------------------------------19----|-------19----------17p13-------o||
|-------18p14----14h18----------18-------|----------18--------------------||
|-------------16-------------------------|-------------19p16-------17p14--||
|----------------------------------------|-------------------------------o||
|----------------------------------------|--------------------------------||


  2.
  F#5               C5
 5/8
   E     E     E     E     E
   |     |     |     |     |
   /     /     /     /     /

   S  S  S  S  S  S  S  S  S  S
|-21p17----------17-24p20-------||
|-------19----19----------------||
|----------18-------------24p21-||
|-------------------------------||
|-------------------------------||
|-------------------------------||
|
|  H                       E
|-------------------------------||
|-------------------------------||
|-------------------------------||
|-------------------------------||
|-------------------------------||
|-------------------------------||


 Guitar Solo 2
  F5                                                  G#5
 6/8
   E         E        S    S     S    S     S    S     E
   |         |        |    |     |    |     |    |     |
   /         /        /    /     /    /     /    /     /

   H.
|---------------------------------------------------------------|
|---------------------------------------------------------------|
|---------------------------------------------------------------|
|---------------------------------------------------------------|
|---------------------------------------------------------------|
|---------------------------------------------------------------|
|
| Gtr III
|  |-------6-------|  |--------6---------|  |-------6--------|
|  S   S  S  S  S  S  S  S    S  S  S    S  S  S    S  S  S  S
|--------13-16-15-13--------------------------------------------|
|-15--16-------------16-15---13---------------------------------|
|-------------------------------16-15---13-15-13---12----12-13--|
|-----------------------------------------------------15--------|
|---------------------------------------------------------------|
|---------------------------------------------------------------|


  F5                                                 B5
 7/8
   E        E        S    S    S    S      S    S     E        E
   |        |        |    |    |    |      |    |     |        |
   /        /        /    /    /    /      /    /     /        /

  Gtr III
   |------6-------|  |--------5--------|   |-------6--------|  |--3--|
   S  S  S  S  S  S  S  S    S    S    S   S  S    S  S  S  S  S  S  S
|----------------------------------------------------------------------|
|-------------------------------------------------------------15-16-18-|
|-12----12-----------------------13---17\------------13-15-17----------|
|----15----15-13-12-13-15---17------------13-15---17-------------------|
|----------------------------------------------------------------------|
|----------------------------------------------------------------------|


  F5                                                      Emaj7/Ab
 6/8
   E           E           S     S     S     S     S    S E
   |           |           |     |     |     |     |    | |
   /           /           /     /     /     /     /    / /

                                                   ~~~~~
   T  T  T  T  T  T  T  T  T  T  T  T  T  T  T  T  Q
|-15-16-15-16-15----15----------------------15-16-18b20-----|
|----------------18----18-16-15----15-16-18-----------------|
|-------------------------------17--------------------------|
|-----------------------------------------------------------|
|-----------------------------------------------------------|
|-----------------------------------------------------------|


  F5                         B5
 5/8
   E        E        E        E        E
   |        |        |        |        |
   /        /        /        /        /

   |------6-------|  |------6-------|
   S  S  S  S  S  S  S  S  S  S  S  S  E
|-19p16p13-------------------------------||
|----------------------------------------||
|----------19p16p13-------------------16-||
|----------------------------------------||
|-------------------20p17p14-------------||
|----------------------------19p16p13----||


  E5                                                    G5
 6/8
   E        E           S    S     S    S     S    S     E
   |        |           |    |     |    |     |    |     |
   /        /           /    /     /    /     /    /     /

   |--3--|              |--------6---------|  |-------6-------|
   S  S  S  T  T  T  T  S  S    S  S  S    S  S  S    S  S  S S
|-15-14-12------------------------------------------------------|
|----------15-14-12-11-14-12---11----12---11-10------10---------|
|---------------------------------14------------12------12-11-9-|
|---------------------------------------------------------------|
|---------------------------------------------------------------|
|---------------------------------------------------------------|


  E5                                             Bb5
 7/8
   E       E       S    S    S   S     S    S     E        E
   |       |       |    |    |   |     |    |     |        |
   /       /       /    /    /   /     /    /     /        /

   |-----6------|  |-------6--------|  |-------6--------|  |--3--|
   S  S S  S  S S  S  S   S  S S    S  S  S    S  S  S  S  S  S  S
|------------------------------------------------------------------|
|------------------------------------------------------------------|
|-12-11-9----11-9-----------------------------------------11-14-12-|
|---------12------12-11---9-11-9-----------------11-12-14----------|
|----------------------------------12-10-12---14-------------------|
|------------------------------------------------------------------|


  E5                                                 G5
 6/8
   E        E        S    S     S    S     S    S     E
   |        |        |    |     |    |     |    |     |
   /        /        /    /     /    /     /    /     /

   |------6-------|  |--------6---------|  |-------6--------|
   S  S  S  S  S  S  S  S    S  S  S    S  S  S    S  S  S  S
|----------------------------------------------------12---------|
|-----------------------------------------12-14---15----15-12---|
|-11----------------11-12---14-11-12---14-----------------------|
|----14-12-11-12-14---------------------------------------------|
|---------------------------------------------------------------|
|---------------------------------------------------------------|


  E5        Bb5
 5/8
   E    E E   E  E
   |    | |   |  |
   /    / /   /  /

   Q.         E  E
|-----------/18-18-||
|-15b17------------||
|------------------||
|------------------||
|------------------||
|------------------||


  B5/F#                                         D5
 6/8
  E        E      S    S     S   S    S    S     E
  |        |      |    |     |   |    |    |     |
  /        /      /    /     /   /    /    /     /

  |------6------| |--------6--------| |---3---|
  S  S  S  S S  S S  S    S  S S    S S  S    S  T  T  T  T
|-----------------------------------------------------------|
|-----------------------------------------------------------|
|-9-10-11-10-9----9-10---11-10-9------9-10---11-14p11-13p11-|
|--------------12------------------12-----------------------|
|-----------------------------------------------------------|
|-----------------------------------------------------------|


  B5/F#                                          F5
 7/8
   E        E        S  S  S     S     S    S    E    E
   |        |        |  |  |     |     |    |    |    |
   /        /        /  /  /     /     /    /    /    /

   |------6-------|                    |---3---|      |-3--|
   S  S  S  S  S  S  S  S  T  T  T  T  S  S    S S  S S S  S
|------------------------------------------------------------|
|-----------------------------------------------------7h9h10p|
|-10-11-10----------10-11-14-11h13p11-10-11---10-9-10--------|
|----------14-12-14------------------------------------------|
|------------------------------------------------------------|
|------------------------------------------------------------|


  B5/F#                                   D5
 6/8
  E     E         S   S   S S   S    S    E
  |     |         |   |   | |   |    |    |
  /     /         /   /   / /   /    /    /

  |---------8:6---------| |--------8:6---------|
  S S S    S S  S   S   S E   S   S  S  S   S  S
|-------------------------------------------7-----|
|-9p7-----------------------------------------10--|
|-----x---10p9h10p==9p==7-----7---9-10-11---------|
|-------------------------9-----------------------|
|-------------------------------------------------|
|-------------------------------------------------|


  B5/F#            F5
 5/8
   E     E      E   E     E
   |     |      |   |     |
   /     /      /   /     /

   S  S  S  S  +E   E     E
|------------------------------|
|-------10---------13----13----|
|-10h11----11-(11)-15b17-15b17-|
|------------------------------|
|------------------------------|
|------------------------------|


  B5/F#                                       D5
 6/8
  E      E      S    S   S    S    S   S      E
  |      |      |    |   |    |    |   |      |
  /      /      /    /   /    /    /   /      /

  |----5-----|                     |-------7--------|
  S  S S   S S  T T  T T T  T T  T S S    S S   S S S
|-----------------------------------------------------|
|-7-10p7---9p7----------------7h10-9-7------------2-3-|
|--------------10-x-10p9p7-10------------10-9---7-----|
|-----------------------------------------------------|
|-----------------------------------------------------|
|-----------------------------------------------------|


  B5/F#                               F5
 7/8
  E     E     S   S   S   S   S   S   E     E
  |     |     |   |   |   |   |   |   |     |
  /     /     /   /   /   /   /   /   /     /

  |----6----| |------6------| |-----6-----| |-3-|
  S S S S S S S S   S S S   S S S   S S S S S S S
|---2-4-5-------4---5-7---------5---6-8-------6-7-|
|-5-------4-5-7---------5---6-8---------6-7-9-----|
|-------------------------------------------------|
|-------------------------------------------------|
|-------------------------------------------------|
|-------------------------------------------------|


  B5/F#                                         D5
 6/8
  E        E        S   S    S   S    S    S    E
  |        |        |   |    |   |    |    |    |
  /        /        /   /    /   /    /    /    /

  |-------7-------| |-------6-------| |-------6-------|
  S S S  S   S S  S S S    S S S    S S  S    S S  S  S
|-9----------7-8-10----------8-9---11-----------9-10-12----|
|---7-8-10----------8-9---11----------9-10---12------------|
|----------------------------------------------------------|
|----------------------------------------------------------|
|----------------------------------------------------------|
|----------------------------------------------------------|


                           Riff A (w/Octava)
  B5/F#             F5      B5/F#            D5  B5/F#            F5
 5/8                       6/8                  7/8
               ~~~~~
   |--3--|
   S  S  S  E  Q.           H.                   H           Q.
|-10-12-13-14-17b19-----||---------------------|----------------------|
|-----------------------||o--------------------|----------------------|
|-----------------------||---------------------|----------------------|
|-----------------------||---------------------|----------------------|
|-----------------------||o--------------------|----------------------|
|-----------------------||---------------------|----------------------|
|
| Gtr I                     Gtrs I, II
|  PM---------|             PM-------------|     PM-------------|
|  E        E  E    E E     E  E S S S S S S E   E E S S S S S  S E E
|-----------------------||---------------------|----------------------|
|-----------------------||o--------------------|----------------------|
|-----------------------||---------------------|----------------------|
|--4--------4--4--------||--4--4-4-4-4-4-4-4-7-|-4-4-4-4-4-4-4--4-----|
|--2--------2--2----3-3-||o-2--2-2-2-2-2-2-2-5-|-2-2-2-2-2-2-2--2-3-3-|
|--2--------2--2----1-1-||--2--2-2-2-2-2-2-2---|-2-2-2-2-2-2-2--2-1-1-|


                                    Country Section
  B5/F#            D5  B5/F# F5      (G)
 6/8                  5/8           4/4
  Gtrs I, II                         Gtr IV
  PM-------------|     PM--|
  E  E S S S S S S E   E E E E E      E E S S S S E S S S S S S
|--------------------|------------||----------------------------|
|--------------------|-----------o||----------------------------|
|--------------------|------------||----------------------------|
|-4--4-4-4-4-4-4-4-7-|-4-4-4------||----------x-x-0-0-0-2p0-----|
|-2--2-2-2-2-2-2-2-5-|-2-2-2-3-3-o||------0h2---------------2---|
|-2--2-2-2-2-2-2-2---|-2-2-2-1-1--||--3-3---------------------3-|
|
|                                    Gtr VI
| H.                   H       E      W
|--------------------|------------||----------------------------|
|--------------------|-----------o||-12-------------------------|
|--------------------|------------||----------------------------|
|--------------------|------------||----------------------------|
|--------------------|-----------o||----------------------------|
|--------------------|------------||----------------------------|


  (C)                                        (G)
    E  S S S S  S S   S  S  S S   S  S S S     E  S S S S S S E. S  S S S S
|------------------------------------------|--------------------------------|
|------------------------------------------|--------------------------------|
|------------0--2p0---3--0--2-3---2--0-----|------------------0--0----------|
|--------0h2---------------------------2-0-|------------0-2p0-------2p0-----|
|---3--3-----------------------------------|--------0h2-----------------2-3-|
|------------------------------------------|---3--3-------------------------|
|
|  +Q.          E    +E     E    +Q           +H.                   Q
|--------------13---(13)-------------------|-----------------------13-------|
|-(12)---------------------12---(12)-------|-(12)---------------------------|
|------------------------------------------|--------------------------------|
|------------------------------------------|--------------------------------|
|------------------------------------------|--------------------------------|
|------------------------------------------|--------------------------------|


  (D7)                                 (G)
   E S S  S  S  S  S S S S S S S S S     E  S S S S  S S   E   S S   S  S S S
|--------------10--------8-------7---|----------------------------------------|
|------------------------------------|----------------------------------------|
|----2p0-10S11----11-8S9---9-6S7---7-|---------------------0---0-0------------|
|--0---------------------------------|------------0--2p0-------------2p=0-----|
|------------------------------------|--------0h2-------------------------2---|
|------------------------------------|---3--3-------------------------------3-|
|
|  W                                    +Q.          E    +E   E    +Q
|------------------------------------|--------------13---(13)-----------------|
|-12---------------------------------|-(12)-------------------12---(12)-------|
|------------------------------------|----------------------------------------|
|------------------------------------|----------------------------------------|
|------------------------------------|----------------------------------------|
|------------------------------------|----------------------------------------|


  C7                           (G)            (D)
    E  E S E S E S S +S  S E    E S S S S S S E E S E.
|------0---------------------|------------------2-------|
|------1---1---1-----------1-|------------------3-------|
|------3---3---3---3-(3)---3-|------------------2-------|
|------2---2---2---2-(2)---2-|----------0-2---0-0-x-----|
|---3--3-x-3-x-3-x-3-(3)-x-3-|------0h2-----2-----------|
|----------------------------|--3-3-----------------5b6-|
|
|  +H.                Q         W
|--------------------13------|--------------------------|
|-(12)-----------------------|-12-----------------------|
|----------------------------|--------------------------|
|----------------------------|--------------------------|
|----------------------------|--------------------------|
|----------------------------|--------------------------|


  (G)
    E  S S S S  S S   S  S  E   E  E
|-------------------------------------|
|-------------------------------------|
|---------------------0---------------|
|------------0--2p0------0------------|
|--------0h2--------------------------|
|---3--3--------------------3---2--1--|
|
|  +Q.          E    +E     E  +Q
|--------------13---(13)--------------|
|-(12)---------------------12-(12)----|
|-------------------------------------|
|-------------------------------------|
|-------------------------------------|
|-------------------------------------|


    E7                        A
      E  E S E S E E  S E S    E E S S S S S S E E S S
||-------0---0---0-0----0---|--5-5-5-5-5-5-5-5-5-5-5-5-|
||o------5---5---5-5----5---|--5-5-5-5-5-5-5-5-5-5-5-5-|
||-------7-x-7-x-7-7--x-7-x-|--6-6-6-6-6-6-6-6-6-6-6-6-|
||-------6-x-6-x-6-6--x-6-x-|--7-7-7-7-7-7-7-7-7-7-7-7-|
||o------7-x-7-x-7-7--x-7-x-|--7-7-7-7-7-7-7-7-7-7-7-7-|
||----0---------------------|--5-5-5-5-5-5-5-5-5-5-5-5-|
|
|    +H.              Q        W
||-------------------13-----|--------------------------|
||o-(12)--------------------|-12-----------------------|
||--------------------------|--------------------------|
||--------------------------|--------------------------|
||o-------------------------|--------------------------|
||--------------------------|--------------------------|


  E7
    E  E S E    S   E   E   S  E S
|------0---0--------0---0------0----|
|------5---5--------5---5------5----|
|------7-x-7----x---7---7---x--7-x--|
|------6-x-6----x---6---6---x--6-x--|
|------7-x-7----x---7---7---x--7-x--|
|---0-------------------------------|
|
|  +Q.        E    +E   E  +Q
|------------13---(13)--------------|
|-(12)-----------------12-(12)------|
|-----------------------------------|
|-----------------------------------|
|-----------------------------------|
|-----------------------------------|


  1.                              2.
  (G)                             (G)
    E  S S S S S S S S E  E E      E S S S S S S S S E E E   E E Q  H
|------------------------------||--------------------------|-------------*|
|-----------------------------o||--------------------------|-------------*|
|------------------0-----------||----------------0---------|-------------*|
|------------0-2p0---0---------||----------0-2p0---0-------|-------------*|
|--------0h2------------------o||------0h2-----------------|-------------*|
|---3--3---------------3--2-1--||--3-3---------------0-1-2-|-3-----------*|
|
|  +H.                    Q        W                         W
|------------------------13----||--------------------------|-------------*|
|-(12)------------------------o||-12-----------------------|-------------*|
|------------------------------||--------------------------|-------------*|
|------------------------------||--------------------------|-------------*|
|-----------------------------o||--------------------------|-------------*|
|------------------------------||--------------------------|-------------*|




--------------------------------------------------------------------------------


Duration Legend
---------------
W - whole; H - half; Q - quarter; E - 8th; S - 16th; T - 32nd; X - 64th; a - acciaccatura
+ - note tied to previous; . - note dotted; .. - note double dotted
Uncapitalized letters represent notes that are staccato (1/2 duration)
Irregular groupings are notated above the duration line
Duration letters will always appear directly above the note/fret number it represents the
duration for.  Duration letters with no fret number below them represent rests.  Multi-
bar rests are notated in the form Wxn, where n is the number of bars to rest for.  Low
melody durations appear below the staff

Tablature Legend
----------------
 h   - hammer-on
 p   - pull-off
 b   - bend
 pb  - pre-bend
 r   - bend release (if no number after the r, then release immediately)
 /\  - slide into or out of (from/to "nowhere")
 s   - legato slide
 S   - shift slide
 - natural harmonic
[n]  - artificial harmonic
n(n) - tapped harmonic
 ~   - vibrato
 tr  - trill
 T   - tap
 TP  - trem. picking
 PM  - palm muting
\n/  - tremolo bar dip; n = amount to dip
 \n  - tremolo bar down
 n/  - tremolo bar up
/n\  - tremolo bar inverted dip
 =   - hold bend; also acts as connecting device for hammers/pulls
 <> - volume swell (louder/softer)
 x   - on rhythm slash represents muted slash
 o   - on rhythm slash represents single note slash

Misc Legend
-----------
 |  - bar
||  - double bar
||o - repeat start
o|| - repeat end
*|  - double bar (ending)
 :  - bar (freetime)
 $  - Segno
 &  - Coda
Tempo markers -  = BPM(8/16=s8/s16), where s8 = swing 8ths, s16 = swing 16ths



            
            
Suggest correction
Creating personal tab
Creating personal tab
You can edit any tab online and save it as your Personal.

You can edit, replace or remove any tab part or add personal notes – all changes will be seen only by you.

Personal tabs can be accessed anytime from any device, even offline.
Learn more »
Give kudos to tab author, rate the tab!
1 2 3 4 5
comments
print report bad tab
guest
You may want to rate the tab now too:
select rating
Wanna post a correction for this tab? Suggest correction