Oops, an error
Loading. Please wait.
1,024,729 views 438 this week
33 commentsread comments
1 2 3 4 5
x 84
add to favorites
×
Save as Personal and add changes to this tab that will be seen only by you. Learn more ›
×
You can save this tab as Personal to edit and correct it or add notes. All changes will be seen only by you. Learn more »
launch autoscroll
font size
0
reset
how to read this tab
guitar tuner
backing track
0:00
0:00
edit
Autoscroll
slow
fast
+/-
esc
set tempo
stop
(Gtr 1) (E A D G B E) - 'Steve Lukather - main riff w/dist'
(Gtr 2) (E A D G B E) - 'Rhythm w/dist'
(Gtr 3) (E A D G B E) - 'Clean electric'
(Gtr 4) (E A D G B E) - 'Eddie Van Halen - Lead w/dist'

[Intro]
 4/4
(Gtr 1)  
e|----------|-------------|----------------------|------------------|
B|--13 bars-|-------------|----------------------|------------------|
G|--synth---|-------------|----------------------|------------------|
D|--intro---|-------------|---------5-2--(2)-2h4-|-(4)-2-0--0-------|
A|----------|-------------|-------2--------------|------------------|
E|----------|-----------0-|-(0)-3----------------|---------------0--|
   
(Riff A) 
e|----------------------|-------------------|-----------------------------------|
B|----------------------|-------------------|-----------------------------------|
G|----------------------|-------------------|-----------------------------------|
D|---------5-2--(2)-2h4-|-(4)-2-0-----------|--------------5-----2----(2)-2h4---|
A|-------2--------------|-------------------|------------2----------------------|
E|-(0)-3----------------|---------------0---|-(0)---3---------------------------|

(Gtr 2)
                                                                   ~~
   W                     
e|----------------------|-------------------|-----------------------------------|
B|----------------------|-------------------|-----------------------------------|
G|----------------------|-------------------|-----------12------12--------------|
D|----------------------|-------------------|-----------12------12-14-----------|
A|----------------------|---------------x-x-|--x--x-x-x------14----14-------x-x-|
E|----------------------|-------------------|-----------------------------------|

e|-------------------------------|
B|-------------------------------|
G|-------------------------------|
D|-(4)-2----0------0-------------|
A|-------------------------------|
E|---------------------------0---|

                  ~~~~
e|-------------------------------|
B|-------------------------------|
G|-----------------------------4-|
D|-12------12-12-(12)--(12)\-----|
A|-12--x-x-12-12-(12)--(12)\-----|
E|-------------------------------|
  
e|--------------------------------|-----------------------------|
B|--------------------------------|-----------------------------|
G|--------------------------------|-----------------------------|
D|------------5----2----(2)-2h4---|-(4)-2-----------------------|
A|----------2---------------------|----------5------------------|
E|-(0)-3--------------------------|-----------------------------|

                     ~~                            ~~~~
e|--------------------------------|-----------------------------|
B|--------------------------------|-----------------------------|
G|-12------12-----12--------------|-----------------------------|
D|---------12-----12-14-----------|-12------12-12-(12)--(12)\---|
A|-----x-x------x----14-------x-x-|-12--x-x-12-12-(12)--(12)\---|
E|--------------------------------|-----------------------------|

[Verse]
(Gtr 2) 
e|-----------------|--------------|----------------|-----------------|
B|o----------------|--------------|----------------|-----------------|
G|----9-9---9----7-|-7---7--------|---9-9---9----7-|-7---7--------5--|
D|----9-9---9----7-|-7---7--------|---9-9---9----7-|-7---7--------5--|
A|o----------------|--------------|----------------|-----------------|
E|-----------------|--------------|----------------|-----------------|

(Rhythm fig 1)
e|----------------|--------------|----------------|--------------|
B|----------------|--------------|----------------|--------------|
G|-5---5--------7-|-7---7--------|---9-9---9----7-|-7---7--------|
D|-5---5--------7-|-7---7--------|---9-9---9----7-|-7---7--------|
A|----------------|--------------|----------------|--------------|
E|----------------|--------------|----------------|--------------|

(w/Rhy Fig 1)
(Gtr 3)
    PM-----------------------------------------------------------------|
e|-----------------|-----------------|-----------------|------------------|
B|-----------------|-----------------|-----------------|------------------|
G|-----------------|-----------------|-----------------|------------------|
D|---2-0-2-0-2---2-|-0-2-0-2-4-2-0-2-|---2-0-2-0-2---2-|-0-2-0-2-4--2-0-2-|
A|-----------------|-----------------|-----------------|------------------|
E|-----------------|-----------------|-----------------|------------------|

(Gtr 1)
    PM---------------------------------------------------------|
e|------------------|-----------------|-----------------|----------------|
B|------------------|-----------------|-----------------|----------------|
G|------------------|-----------------|-----------------|----------------|
D|---2-0-2-0--2---2-|-0-2-0-2-4-2-0-2-|---2-0-2-0-2---2-|-0-2-0-2--------|
A|------------------|-----------------|-----------------|----------------|
E|------------------|-----------------|-----------------|--------------0-|

[Chorus]
(Gtr 1)  
e|----------|-------------|----------------------|------------------|
B|--13 bars-|-------------|----------------------|------------------|
G|--synth---|-------------|----------------------|------------------|
D|--intro---|-------------|---------5-2--(2)-2h4-|-(4)-2-0--0-------|
A|----------|-------------|-------2--------------|------------------|
E|----------|-----------0-|-(0)-3----------------|---------------0--|
   
(Riff A) 
e|----------------------|-------------------|-----------------------------------|
B|----------------------|-------------------|-----------------------------------|
G|----------------------|-------------------|-----------------------------------|
D|---------5-2--(2)-2h4-|-(4)-2-0-----------|--------------5-----2----(2)-2h4---|
A|-------2--------------|-------------------|------------2----------------------|
E|-(0)-3----------------|---------------0---|-(0)---3---------------------------|

(w/Riff A)
  (Gtr 3)
e|-------------------------|----------------------|
B|-12----12---12---12------|-12----12---12---12---|
G|-------------------------|----------------------|
D|--9-----9----9----9------|--9-----9----9----9---|
A|-------------------------|----------------------|
E|-------------------------|----------------------|

(Rhy Fig 2)
e|-------------------------|-------------------------|
B|-12----12---12---12------|-12----12---12----12-----|
G|-------------------------|-------------------------|
D|--9-----9----9----9------|--9-----9----9-----9-----|
A|-------------------------|-------------------------|
E|-------------------------|-------------------------|

(Gtr 1)
e|----------------------|-----------------|
B|----------------------|-----------------|
G|----------------------|-----------------|
D|---------5-2--(2)-2h4-|-(4)-2-0--0------|
A|-------2--------------|-----------------|
E|-(0)-3----------------|---------------0-|

e|----------------------|----------------|
B|----------------------|---------------o|
G|----------------------|----------------|
D|---------5-2--(2)-2h4-|-(4)-2-0--------|
A|-------2--------------|---------------o|
E|-(0)-3----------------|----------------|

(Rhy Fig 3) (x2)
e|----------------|----------------|----------------|----------------|
B|----------------|----------------|----------------|----------------|
G|----------------|----------------|----------------|----------------|
D|----------------|----------------|----------------|----------------|
A|----------------|----------------|----------------|----------------|
E|---0-0---0----0-|-0---0--------0-|---0-0---0----0-|-0---0--------0-|

(w/Rhy Fig 1) 
(Gtr 3)
    PM-----------------------------------------------------------------|
e|-----------------|-----------------|-----------------|------------------|
B|-----------------|-----------------|-----------------|------------------|
G|-----------------|-----------------|-----------------|------------------|
D|---2-0-2-0-2---2-|-0-2-0-2-4-2-0-2-|---2-0-2-0-2---2-|-0-2-0-2-4--2-0-2-|
A|-----------------|-----------------|-----------------|------------------|
E|-----------------|-----------------|-----------------|------------------|

(Gtr 1)                                                                      (x2)
    PM---------------------------------------------------------|
e|------------------|-----------------|-----------------|----------------|
B|------------------|-----------------|-----------------|----------------|
G|------------------|-----------------|-----------------|----------------|
D|---2-0-2-0--2---2-|-0-2-0-2-4-2-0-2-|---2-0-2-0-2---2-|-0-2-0-2--------|
A|------------------|-----------------|-----------------|----------------|
E|------------------|-----------------|-----------------|--------------0-|

(Gtr 2)
                   ~~                      ~~~~  
e|-------------------------|------------------------|
B|-------------------------|------------------------|
G|-------12-----12---------|-12-----12--------------|
D|-------12-----12-14------|-12-----12-14-(14)------|
A|---x-x------x----14--x-x-|------x----14-(14)------|
E|-------------------------|------------------------|

                   ~~                      ~~~~  
e|-------------------------|-------------------------|
B|-------------------------|-------------------------|
G|-------12-----12---------|-12-----12---------------|
D|-------12-----12-14------|-12-----12-14-(14)-------|
A|---x-x------x----14--x-x-|------x----14-(14)-------|
E|-------------------------|-------------------------|

                   ~~                      ~~~~                       ~~
e|-------------------------|------------------------|-------------------------|
B|-------------------------|------------------------|-------------------------|
G|-------12-----12---------|-12-----12--------------|-------12-----12---------|
D|-------12-----12-14------|-12-----12-14-(14)------|-------12-----12-14------|
A|---x-x------x----14--x-x-|------x----14-(14)------|---x-x------x----14--x-x-|
E|-------------------------|------------------------|-------------------------|

(Gtr 4)
               \4____/  
e|-----------------------------------|
B|-----------------------------------|
G|--------------0-----0-----(0)h2b3==|
D|-----------------------------------|
A|-----------------------------------|
E|-----------------------------------|

(Gtr 2)
                     ~~~~ 
e|-----------------------------------|
B|-----------------------------------|
G|-12-----12-------------------------|
D|-12-----12-14-----(14)-------------|
A|------x----14-----(14)-------------|
E|-----------------------------------|

[Guitar Solo]
(w/Rhy Fig 1)
(Gtr 3)
    PM-----------------------------------------------------------------|
e|-----------------|-----------------|-----------------|------------------|
B|-----------------|-----------------|-----------------|------------------|
G|-----------------|-----------------|-----------------|------------------|
D|---2-0-2-0-2---2-|-0-2-0-2-4-2-0-2-|---2-0-2-0-2---2-|-0-2-0-2-4--2-0-2-|
A|-----------------|-----------------|-----------------|------------------|
E|-----------------|-----------------|-----------------|------------------|

(Gtr 1)                                                                      (x2)
    PM---------------------------------------------------------|
e|------------------|-----------------|-----------------|----------------|
B|------------------|-----------------|-----------------|----------------|
G|------------------|-----------------|-----------------|----------------|
D|---2-0-2-0--2---2-|-0-2-0-2-4-2-0-2-|---2-0-2-0-2---2-|-0-2-0-2--------|
A|------------------|-----------------|-----------------|----------------|
E|------------------|-----------------|-----------------|--------------0-|

(Gtr 4)
                                   ~~~~~           T  
e|----------------------------|----------------------------|
B|----------------------------|----------------------------|
G|-(2)b4==(2)-----(2)r(2)s7---|-(7)-7(14)-----(7)s9-9(14)--|
D|----------------------------|----------------------------|
A|----------------------------|----------------------------|
E|----------------------------|----------------------------|

              T        T                T              T
                       |------5------|  |------6-------|  
e|------------15p10h14-15p14p12p==10h14-15p14p12p10h14-15p|
B|--------------------------------------------------------|
G|-(9)s==14-----------------------------------------------|
D|--------------------------------------------------------|
A|--------------------------------------------------------|
E|--------------------------------------------------------|

                   T              T                        ~~~
    |---------7----------|  |---------7----------|   
e|-14p12p10-----------------------------------------------------------|
B|----------h14---15p14p12p10h14-15p14p==12p10-(10)h12h13p12----(12)s=|
G|--------------------------------------------------------------------|
D|--------------------------------------------------------------------|
A|--------------------------------------------------------------------|
E|--------------------------------------------------------------------|

                        |-----5-----|  |------6-------|   
e|------------------12h19p15p12----12-------------12----|
B|-19------12-15h19-------------19-12-19p15p12h15----19p|
G|------------------------------------------------------|
D|------------------------------------------------------|
A|------------------------------------------------------|
E|------------------------------------------------------|

    |---------7---------|   
e|----------12------------12-----------------------------------------------|
B|-15p12h15------19p15p12----12---------------------15b17==(15)r(15)p12h===|
G|------------------------------14b15==(14)r(14)p12------------------------|
D|-------------------------------------------------------------------------|
A|-------------------------------------------------------------------------|
E|-------------------------------------------------------------------------|

                                                               \2.5_______
       T           T  
e|----------------19s22--------------------------------------------------|
B|-15-19s22p15p12-------15p12--------------------------------------------|
G|-----------------------------14b15==(14)-(14)r(14)p12-0-(0)-(0)----(0)-|
D|-----------------------------------------------------------------------|
A|-----------------------------------------------------------------------|
E|-----------------------------------------------------------------------|

    /                             \1/  
e|------------------------------------------|
B|------------------------------------------|
G|-(0)-(0)---[9]b11==(9)r(9)p7h9-(9)p7-(7)--|
D|------------------------------------------|
A|------------------------------------------|
E|------------------------------------------|
  
e|-----------------------------------------------|
B|------3b5==(3)-(3)r(3)p0h3b5==(3)r(3)p0-3b5====|
G|-(7)\------------------------------------------|
D|-----------------------------------------------|
A|-----------------------------------------------|
E|-----------------------------------------------|

e|------------------------------------------------|
B|=(3)rp0-3b5==(3)r(3)p0--------------------------|
G|-----------------------[2]b4==([2])--([2])r-(2)s|
D|------------------------------------------------|
A|------------------------------------------------|
E|------------------------------------------------|

                                           ~~~~~   
e|-------------12--------------12-15b17==(15)r---12----|
B|----------------15b17==(15)r-12-------------------12-|
G|-16-----7s13-----------------------------------------|
D|-----------------------------------------------------|
A|-----------------------------------------------------|
E|-----------------------------------------------------|

                        ~~~~~~~~~         T   
e|------------------------------------------------|
B|---------------------------------------15h18p13-|
G|-14b16==(14)r(14)p12-14---(14)-(14)\------------|
D|------------------------------------------------|
A|------------------------------------------------|
E|------------------------------------------------|

    T          T        T        T         T        T        T        T           T
    |------5------|  |------6-------|  |--------7---------|  |---------7----------|   
e|-15h18p12------------15h18p12-----------15h18p12----------15h18p12---------h13-17p==|
B|------------15h18p12----------15h18p12-----------15h18p12----------15p==12----------|
G|------------------------------------------------------------------------------------|
D|------------------------------------------------------------------------------------|
A|------------------------------------------------------------------------------------|
E|------------------------------------------------------------------------------------|

       T     T
    |3-|  |3-|   
e|-10-17p10-17p10s==8------0---------12----|
B|-------------------------0-15b17==(15)r--|
G|--------------------9s14-----------------|
D|-----------------------------------------|
A|-----------------------------------------|
E|-----------------------------------------|

    TP   TP   TP     TP   TP   TP   TP  TP      TP   
e|-12---14---15-----17-|-17---19---19--22b24==(22)-----|
B|---------------------|-------------------------------|
G|---------------------|-------------------------------|
D|---------------------|-------------------------------|
A|---------------------|-------------------------------|
E|---------------------|-------------------------------|

[Outro/Chorus]
(w/Riff A)
     TP     TP     ~~~~   
e|-(22)---(22)---(22)----------|-(22)r------------------|
B|-----------------------------|------------------------|
G|-----------------------------|---------19--(19)\------|
D|-----------------------------|-------x----------------|
A|-----------------------------|------------------------|
E|-----------------------------|------------------------|

(w/Riff A)
  (Gtr 3)
e|-------------------------|----------------------|
B|-12----12---12---12------|-12----12---12---12---|
G|-------------------------|----------------------|
D|--9-----9----9----9------|--9-----9----9----9---|
A|-------------------------|----------------------|
E|-------------------------|----------------------|

(Rhy Fig 2)
e|-------------------------|-------------------------|
B|-12----12---12---12------|-12----12---12----12-----|
G|-------------------------|-------------------------|
D|--9-----9----9----9------|--9-----9----9-----9-----|
A|-------------------------|-------------------------|
E|-------------------------|-------------------------|

(Gtr 1)
e|----------------------|-----------------|
B|----------------------|-----------------|
G|----------------------|-----------------|
D|---------5-2--(2)-2h4-|-(4)-2-0--0------|
A|-------2--------------|-----------------|
E|-(0)-3----------------|---------------0-|

e|----------------------|----------------|
B|----------------------|---------------o|
G|----------------------|----------------|
D|---------5-2--(2)-2h4-|-(4)-2-0--------|
A|-------2--------------|---------------o|
E|-(0)-3----------------|----------------|

(w/Riff A)
  (Gtr 3)
e|-------------------------|----------------------|
B|-12----12---12---12------|-12----12---12---12---|
G|-------------------------|----------------------|
D|--9-----9----9----9------|--9-----9----9----9---|
A|-------------------------|----------------------|
E|-------------------------|----------------------|

(Rhy Fig 2) (x2)
e|-------------------------|-------------------------|
B|-12----12---12---12------|-12----12---12----12-----|
G|-------------------------|-------------------------|
D|--9-----9----9----9------|--9-----9----9-----9-----|
A|-------------------------|-------------------------|
E|-------------------------|-------------------------|

(Gtr 1)
e|----------------------|-----------------|
B|----------------------|-----------------|
G|----------------------|-----------------|
D|---------5-2--(2)-2h4-|-(4)-2-0--0------|
A|-------2--------------|-----------------|
E|-(0)-3----------------|---------------0-|

e|----------------------|----------------|
B|----------------------|---------------o|
G|----------------------|----------------|
D|---------5-2--(2)-2h4-|-(4)-2-0--------|
A|-------2--------------|---------------o|
E|-(0)-3----------------|----------------|



************************************

| (n)  Ghost note
| h    Hammer-on
| x    Dead note
| ~    Vibrato
| b    Bend
| p    Pull-off
| tp   Tremolo picking

************************************

            
            
Suggest correction
Creating personal tab
Creating personal tab
You can edit any tab online and save it as your Personal.

You can edit, replace or remove any tab part or add personal notes – all changes will be seen only by you.

Personal tabs can be accessed anytime from any device, even offline.
Learn more »
comments
print report bad tab
33 comments total. Showing first comments.
+2 reply
cloos112889 10 Dec 13, 2003 07:00 PM

good job! very thorough. nice.

+4 reply
E-male 642 Jul 02, 2004 08:00 PM

perfect tab here

+8 reply
Señor 110 Nov 11, 2004 07:00 PM

actually i think it's tuned 1/2 a step down but excellent tab anyway

guest
You may want to rate the tab now too:
select rating
Wanna post a correction for this tab? Suggest correction