Oops, an error
Loading. Please wait.

Just Good Friends bass

version 1
version 1

Whole song

Interactive

100 views 3 this week
no commentswrite comment
1 2 3 4 5
3 more votes to show rating
add to favorites
×
Save as Personal and add changes to this tab that will be seen only by you. Learn more ›
×
You can save this tab as Personal to edit and correct it or add notes. All changes will be seen only by you. Learn more »
launch autoscroll
font size
0
reset
guitar tuner
edit
Autoscroll
slow
fast
+/-
esc
set tempo
stop
Author
Difficulty
Michael Jackson: Just Good Friends

1/4 Step up all strings

Bass Effect Throughout: Wah/Fuzz

Intro
G|---------------------------------------------------------------|
D|---------------------------------------------------------------|
A|----6/---------------------------------------------------------|
E|---------------------------------------------------------------|
B|-2/---------------------------------------------------------2/-|

G|--------------------------------------------------------|
D|--------------------------------------------------------|
A|--------------------------------------------------------|
E|---------4----------------------------1~--3~--5--5--6~--|
B|-4\-----------2---2--2--3--4\-----2-4-------------------|

G|------------------------------------------------------------------|
D|------------------------------------------------------------------|
A|------------------------------------------------------------------|
E|---------------------------2~-4~----------------------------7~-4~-|
B|-4--4----4--4----4--4--4----------4--4----4--4----4--4--4---------|

G|------------------------------------------------------------------|
D|------------------------------------------------------------------|
A|--------------------------------------------------------6b~-------|
E|-6-------------------------2~-4~----------------------------------|
B|----4----4--4----4--4--4----------4--4----4--4----4--4------------|

Verse 1:
G|------------------------------------------------------|
D|------------------------------------------------------|
A|------------------------------------------------------|
E|-2-----2~-----4-----4~-----6-----6~-----2-----2~---2--|
B|-------------------------------------------------2----|

G|---------------------------------------------------------|
D|---------------------------------------------------------|
A|---------------------------------------------------------|
E|-2-----2~-----4-----4~-----6-----6~-----2-----2----------|
B|-------------------------------------------------4b~-2~--|

G|---------------------------------------------------------|
D|---------------------------------------------------------|
A|---------------------------------------------------------|
E|-2-----2--2---4-----4--4---6-----6--6---2-----2--2--4--6-|
B|---------------------------------------------------------|

G|--------------------------------------------------------------|
D|--------------------------------------------------------------|
A|--------------------------------------------------------------|
E|-7~--7----7~---7----7~--7----6-7------6~--6-------4--6--7--6--|
B|----------------------------------6------------6--------------|

G|------------------|
D|------------------|
A|------------------|
E|-7~--7~--4~--6~---|
B|------------------|

Chorus:
G|------------------------------------------------------------------------|
D|------------------------------------------------------------------------|
A|-6----------------------------------------------------------------------|
E|-----4--4--6------------4--4-------------------------1~--3~--4--4--6~---|
B|--------------4--4---------------2--2-----4\----------------------------|

G|------------------------------------------------------------------------|
D|------------------------------------------------------------------------|
A|-6----------------------------------------------------------------------|
E|-----4--4--6------------2--2-----1--1----------------1~--3~--4--4--6~---|
B|--------------4--4------------------------4\-----2-4--------------------|

G|-------------------------------------|
D|-------------------------------------|
A|-------------------------------------|
E|-----8--8---6--8~---6----8--6--6-----|
B|-6-----------------------------------|

Post-Chorus
G|-------------------------------------------------------------------|
D|-------------------------------------------------------------------|
A|-------------------------------------------------------6-4---------|
E|---------------------------2~-4~---------------------------6-7~-4~-|
B|-4--4----4--4----4--4--4----------4--4----4--4----4--4-------------|

G|------------------------------------------------------------------|
D|------------------------------------------------------------------|
A|--------------------------------------------------------6b~-------|
E|-6-------------------------2~-4~----------------------------------|
B|----4----4--4----4--4--4----------4--4----4--4----4--4------------|

Verse 2:
G|-------------------------------------------------------|
D|--------------------------------------------------6p4--|
A|-------------------------------------------------------|
E|-2-----2~-----4-----4~-----6-----6~-----2-----2~-------|
B|-------------------------------------------------------|

G|--------------------------------------------------------|
D|--------------------------------------------------------|
A|--------------------------------------------------------|
E|-2-----2~-----4---4--4-----6---6--6-----2-----2---------|
B|-------------------------------------------------4~-2~--|

G|----------------------------------------------------------|
D|----------------------------------------------------------|
A|----------------------------------------------------------|
E|-7~--7----7~---7----7~--7----6-7------6~--6----6--6--4----|
B|----------------------------------6---------------------6-|

G|------------------|
D|------------------|
A|------------------|
E|-7~--7~--4~--6~---|
B|------------------|

Chorus 2:
G|------------------------------------------------------------------------|
D|------------------------------------------------------------------------|
A|-6--------------------------------------------------------------------4-|
E|-----4--4--6------------4--4-----------------------1~--3~--4--4--6~-6---|
B|--------------4--4---------------2--2-----4\----------------------------|

G|-----------------------------------------------------------------------|
D|-----------------------------------------------------------------------|
A|-6---------------------------------------------------------------------|
E|-----4--4--6------------2--2-----1--1----------------1~--3~--4--4--6~--|
B|--------------4--4--2-4--------------------4\----2-4-------------------|

G|-------------------------------------|
D|-------------------------------------|
A|-------------------------------------|
E|-----8--8---6--8~---6----8--6--6-----|
B|-6-----------------------------------|

Post-Chorus 2:
G|-------------------------------------------------------------------|
D|-------------------------------------------------4-----------------|
A|----------------------------------------------------6-4~-----------|
E|---------------------------2~-4~--------------------------6--7~-4~-|
B|-4--4----4--4----4--4--4----------4--4----4--4---------------------|

G|----------------------------------------------------------------------|
D|----------------------------------------------------------------------|
A|----------------------------------------------------------------------|
E|-6-------------------------2~-4~----------------------------4~--6--4--|
B|----4----4--4----4--4--4----------4--4----4--4----4--4--4-------------|

Bridge:
G|-----------------------------------------------------------------------|
D|-----------------------------------------------------------------------|
A|-----------------------------------------------------------------------|
E|-6~--6----------6~--6----------4--6~--6----------6--4~--4----------4---|
B|--------------------------4-6----------------------------------------4-|

G|------------------------------------------------------------------------|
D|------------------------------------------------------------------------|
A|------------------------------------------------------------------------|
E|-----------------3~--3---3~--3---8~--8---8~--8---6-4------3~---6~---8~--|
B|-6~--6---6~--6---------------------------------------6~-----------------|

Final Chorus
G|-----------------------------------------------------------------------|
D|-----------------------------------------------------------------------|
A|-8---8-----------------------------------------------------------------|
E|--------6--8------------6--6-----------------------3~--5~--6--6--8~----|
B|--------------6--6---------------4--4-----6\---------------------------|

G|-----------------------------------------------------------------------|
D|-----------------------------------------------------------------------|
A|-8---8-----------------------------------------------------------------|
E|--------6--8------------6--6-----------------------3~--5~--6--6--8~----|
B|--------------6--6---------------4--4-----6\---4-6---------------------|

G|-----------------------------------------------------------------------|
D|-----------------------------------------------------------------------|
A|-8---8-----------------------------------------------------------------|
E|--------6--8------------6--6-----------------------3-------6-----8-----|
B|--------------6--6---------------4--4-----6\---------------------------|

G|------------------------------------------------------------------------|
D|------------------------------------------------------5----7----8----10-|
A|-8---8------------------------------------------------------------------|
E|--------6--8------------6--6-----------------------3----5----6----8-----|
B|--------------6--6---------------4--4-----6\---4-6----------------------|

G|-----------------------------------------------------------------------|
D|-----------------------------------------------------------------------|
A|-8---8-----------------------------------------------------------------|
E|--------6--8------------6--6-----------------------3-------6-----8-----|
B|--------------6--6---------------4--4-----6\---------------------------|

G|-----------------------------------------------------------------------|
D|-----------------------------------------------------------------------|
A|-8---8-----------------------------------------------------------------|
E|--------6--8------------6--6-----------------------3~--5~--6--6--8~----|
B|--------------6--6---------------4--4-----6\---4-6---------------------|

G|-----------------------------------------------------------------------|
D|-----------------------------------------------------------------------|
A|-8---8-----------------------------------------------------------------|
E|--------6--8------------6--6-----------------------3-------6-----8-----|
B|--------------6--6---------------4--4-----6\---------------------------|

Fade out


            
            
Suggest correction
Creating personal tab
Creating personal tab
You can edit any tab online and save it as your Personal.

You can edit, replace or remove any tab part or add personal notes – all changes will be seen only by you.

Personal tabs can be accessed anytime from any device, even offline.
Learn more »
Give kudos to tab author, rate the tab!
1 2 3 4 5
comments
print report bad tab
guest
You may want to rate the tab now too:
select rating
Wanna post a correction for this tab? Suggest correction