Oops, an error
Loading. Please wait.

Feels Like A Good Thing tab

version 1
version 1

Whole song

3,694 views 1 this week
no commentswrite comment
1 2 3 4 5
1 last vote to show rating
add to favorites
×
Save as Personal and add changes to this tab that will be seen only by you. Learn more ›
×
You can save this tab as Personal to edit and correct it or add notes. All changes will be seen only by you. Learn more »
launch autoscroll
font size
0
reset
how to read this tab
guitar tuner
edit
Autoscroll
slow
fast
+/-
esc
set tempo
stop
-------------------------------------------------------------------------------
		  FEELS LIKE A GOOD THING - Michael Schenker Group
-------------------------------------------------------------------------------
MSG
Feels Like A Good Thing
from: The Michael Schenker Group (1980)

Tuning: Standard



e|-------------------------|---------------------------|
B|-------------------------|---------------------------|
G|-----------------2~------|---------------------2~----|
D|-----------------2~---4--|----------2---4-2-------4--|
A|--4--4---2-0-----0~---4--|--0-2-3-4---------4--------|
E|--2--2-------2--------2--|---------------------------|

e|-------------------------|---------------------------|
B|-------------------------|---------------------------|
G|-----------------2~------|---------------------------|
D|-----------------2~---4--|----------2---2h4~--4~~----|
A|--4--4---2-0-----0~---4--|--0-2-3-4------------------|
E|--2--2-------2--------2--|---------------------------|

e|-------------------------|---------------------------|
B|-------------------------|---------------------------|
G|-----------------2~------|---------------------2~----|
D|-----------------2~---4--|----------2---4-2-------4--|
A|--4--4---2-0-----0~---4--|--0-2-3-4---------4--------|
E|--2--2-------2--------2--|---------------------------|

e|-------------------------|---------------------------|
B|-------------------------|---------------------------|
G|-----------------2~------|---------------------------|
D|-----------------2~---4--|----------2---4-2----2h4~~-|
A|--4--4---2-0-----0~---4--|--0-2-3-4---------4--------|
E|--2--2-------2--------2--|---------------------------|



VERSE:
  I know what I need		and you got what I want
e|----------------------------|----------------------------|
B|----------------------------|----------------------------|
G|-----------------------2~---|-----------------------4~---|
D|-----4------4------4---2~---|-----4------4------4---4~---|
A|--4--4------4------4---0~---|--4--4------4------4---2~---|
E|--2--2---2--2---2--2--------|--2--2---2--2---2--2--------|

  So use your imagination
e|----------------------------|-----------------------------|
B|----------------------------|-----------------------------|
G|-----------------------2~---|-----------------4p2---------|
D|-----4------4------4---2~---|-----4------4--------4-4p2---|
A|--4--4------4------4---0~---|-----4------4--------------0-|
E|--2--2---2--2---2--2--------|--2--2---2--2--2-------------|

   got that look in your eyes	 so hard to disguise
e|----------------------------|----------------------------|
B|----------------------------|----------------------------|
G|-----------------------2~---|-----------------------4~---|
D|-----4------4------4---2~---|-----4------4------4---4~---|
A|--4--4------4------4---0~---|--4--4------4------4---2~---|
E|--2--2---2--2---2--2--------|--2--2---2--2---2--2--------|

   your situation
e|----------------------------|--------------------------|
B|----------------------------|--------------------------|
G|-----------------------2~---|--------------------------|
D|-----4------4------4---2~---|-----4------4------4------|
A|--4--4------4------4---0~---|-----4------4------4------|
E|--2--2---2--2---2--2--------|--2--2---2--2---2--2------|


CHORUS:
   And if it feels like a good thing
e|--------------------------------------|-------------------------------------|
B|--------------------------------------|-------------------------------------|
G|--------------------------------------|-------------------------------------|
D|--------------------------------------|-------------------------------------|
A|--7-7-7-7--7-7-7-7--5-5-5-5--5-5-5-5--|--4-4-4-4--4-4-4-4--2-2-2-2----------|
E|--------------------------------------|------------------------------3p0----|

   It's down to you, girl
e|--------------------------------------|-------------------------------------|
B|--------------------------------------|-------------------------------------|
G|--------------------------------------|-------------------------------------|
D|--------------------------------------|----------------------------2~~------|
A|--7-7-7-7--7-7-7-7--5-5-5-5--5-5-5-5--|--4-4-4-4--4-4-4-4--2p0--------------|
E|--------------------------------------|------------------------3p0----------|

   ...If it feels like a good thing
e|--------------------------------------|-------------------------------------|
B|--------------------------------------|-------------------------------------|
G|--------------------------------------|-------------------------------------|
D|--------------------------------------|-------------------------------------|
A|--7-7-7-7--7-7-7-7--5-5-5-5--5-5-5-5--|--4-4-4-4--4-4-4-4--2-2-2-2----------|
E|--------------------------------------|------------------------------3p0----|

   You know what to do
e|--------------------------------------|-------------------------------------|
B|--------------------------------------|-------------------------------------|
G|--------------------------------------|-------------------------------------|
D|--------------------------------------|----------------------------2~~------|
A|--7-7-7-7--7-7-7-7--5-5-5-5--5-5-5-5--|--4-4-4-4--4-4-4-4--2p0--------------|
E|--------------------------------------|------------------------3p0----------|


VERSE:

  There's a hunger in me
  I just can't seem to please
  And you got the connections

  Try not to fight
  When the feeling is right
  Just move in my direction

CHORUS:
  And if it feels like a good thing
  It's down to you, girl
  If it feels like a good thing
  You know what to do

SOLO:

	1					2
e|------------------------------------------|------------------------------------------|
B|---------7~-------7~------7---------------|---------7-------------7--5---------------|
G|----9b-------9b--------------6--9---9b~~--|-(9b)--------6-----9b--------6------------|
D|------------------------------------------|--------------------------------7---4~~~--|
A|------------------------------------------|------------------------------------------|
E|------------------------------------------|------------------------------------------|
 |					    |					       |
e|------------------------------------------|------------------------------------------|
B|------------------------------------------|------------------------------------------|
G|--------------------------------2---------|------------------------------------------|
D|------------------------------------4~----|-------------------------------2----------|
A|--4---4------------0--2--3--4-------------|--4---4------------0--2--3--4-----4--2--0-|
E|--2---2---5---2~--------------------------|--2---2---5---2~--------------------------|

	3					4
e|------------------------------------------|------------------------------------------|
B|--1h2p1-----------------------------------|------------------------------------------|
G|--------2---4p2-4--2~---------------------|------------------------------------------|
D|------------------------------------------|------------------------------------------|
A|----------------------4--2--0---4p0--2p0--|---4p0--2p0------------4p0---4b~~~---x/---|
E|------------------------------------------|------------------------------------------|
 |					    |					       |
e|------------------------------------------|------------------------------------------|
B|------------------------------------------|------------------------------------------|
G|--------------------------------2---------|------------------------------------------|
D|------------------------------------4~----|---------------------------------2.-------|
A|--4---4------------0--2--3--4-------------|--4---4------------0--2--3--4-------------|
E|--2---2---5---2~--------------------------|--2---2---5---2~--------------------------|

	5					6
e|--------14--------------------------------|------------------------------------------|
B|-17b~------17-14-----14--------16---------|------------------------------------------|
G|-----------------16-----15--------15------|----14----16-14----14--16b~~-~~--18b~~-~~-|
D|---------------------------16--------16---|-16----16-------16------------------------|
A|------------------------------------------|------------------------------------------|
E|------------------------------------------|------------------------------------------|

	7					8
e|------------------------------------------|------------------------------------------|
B|---10b~~~---------------------------------|------------------------------------------|
G|---------------11p9-----------------------|------------------------------------------|
D|--------------------9p8--9p8~~--8---9p8---|--9--11--8--9---8h9p8----9p8--------------|
A|------------------------------------------|----------------------9-------9---9~~~~\--|
E|------------------------------------------|------------------------------------------|

	9					10
e|--x--22b~~~~~-----21---19---21------------|----------------19-20-21--18p14--14-16-14-|
B|--x-------------------------------21b~~~--|21b~rp19h21p19-21b------21-----16---------|
G|--x---------------------------------------|------------------------------------------|
D|------------------------------------------|------------------------------------------|
A|------------------------------------------|------------------------------------------|
E|------------------------------------------|------------------------------------------|

	11					12
e|-16b~r-14----14---------------------------|-----------------14-16-17-18-17tr18-------|
B|----------16---16-14-16-------------------|---------14-15-16-------------------------|
G|------------------------14----------------|-14-15-16---------------------------------|
D|---------------------------16---16--14-16-|------------------------------------------|
A|------------------------------------------|------------------------------------------|
E|------------------------------------------|------------------------------------------|

	13					14
e|---14~~~~~~~------------------------------|------------------------------------------|
B|-----------17-14-17-14----14--------------|------------------------------------------|
G|-----------------------16----14----16-14--|----------------------------15-15~~~~~~~--|
D|---------------------------------16-------|--16-14----14--13h14p13--13---------------|
A|------------------------------------------|--------16-------------15-----------------|
E|------------------------------------------|------------------------------------------|

	15					16
e|------------------------------------------|------------------------------------------|
B|------------------------------------------|------------------------------------------|
G|-----14--15----------14--15---------------|------------------------------------------|
D|-16---------16---16----------16--13-14----|-13-14----13------------------------------|
A|---------------------------------------16-|-------16----16-15-14-12-14p12---14-12----|
E|------------------------------------------|-------------------------------14-----14~~|

	17					18
e|------------------------------------------|------------------------------------------|
B|------------------------------------------|------------------------------------------|
G|-------------------11b~~~~~~~~~~rp9~------|-11-----9---11h12p11p9--11----9~~-11~-----|
D|------------------------------------------|-----11--------------------11-------------|
A|------------------------------------------|------------------------------------------|
E|------------------------------------------|------------------------------------------|
 |					    |					       |
e|------------------------------------------|------------------------------------------|
B|------------------------------------------|------------------------------------------|
G|------------------------------------------|------------------------------------------|
D|------------------------------------------|------------------------------------------|
A|--7-7-7-7---7-7-7-7---5-5-5-5---5-5-5-5---|--4-4-4-4---4-4-4-4---2-2-2-2---2-2-2-2---|
E|------------------------------------------|------------------------------------------|

	19					20
e|------------------------------------------|------------------------------------------|
B|--------------10h12-----------------------|------------------------------------------|
G|--------------------11b~~r~p9~~~~9~-------|------------------------------------------|
D|------------------------------------------|--------------11--9\7---------------------|
A|------------------------------------------|-----------------------9b~~~r~p7--------7-|
E|------------------------------------------|-----------------------------------9------|
 |					    |					       |
e|------------------------------------------|------------------------------------------|
B|------------------------------------------|------------------------------------------|
G|------------------------------------------|------------------------------------------|
D|------------------------------------------|------------------------------------------|
A|--7-7-7-7---7-7-7-7---5-5-5-5---5-5-5-5---|--4-4-4-4---4-4-4-4---2-2-2-2---0-0-0-0---|
E|------------------------------------------|------------------------------------------|

	21					22
                                             I need you tonight
e|------------------------------------------|------------------------------------------|
B|------------------------------------------|-----------------------12/14b~~~~~~~~~~~~-|
G|------------------------------------------|------------------------------------------|
D|------------------------------------------|------------------------------------------|
A|--------------9b~r~~~~~~~\7~--------------|------------------------------------------|
E|------------------------------------------|------------------------------------------|
 |					    |					       |
e|------------------------------------------|------------------------------------------|
B|------------------------------------------|------------------------------------------|
G|------------------------------------------|------------------------------------------|
D|------------------------------------------|------------------------------------------|
A|--7-7-7-7---7-7-7-7---5-5-5-5---5-5-5-5---|--4-4-4-4---4-4-4-4---2-2-2-2---2-2-2-2---|
E|------------------------------------------|------------------------------------------|

	23					24
                                                  gotta have ya
e|------------------------------------------|------------------------------------------|
B|-~~~~~~~~~~~~~~~r~~\12--10h12p10\9--------|-----------------------x\-----------------|
G|-----------------------------------9~~~~~-|-~~~~~~----------------x\-----------------|
D|------------------------------------------|-----------------------x\-----------------|
A|------------------------------------------|------------------------------------------|
E|------------------------------------------|------------------------------------------|
 |					    |					       |
e|------------------------------------------|------------------------------------------|
B|------------------------------------------|------------------------------------------|
G|------------------------------------------|------------------------------------------|
D|------------------------------------------|------------------------------------------|
A|--7-7-7-7---7-7-7-7---5-5-5-5---5-5-5-5---|--4-4-4-4---4-4-4-4---2-2-2-2---0-0-0-0---|
E|------------------------------------------|------------------------------------------|

	25					26
  Ah                        What ya do to me
e|----/24~~~~~~\----------------------------|------------------------------------------|
B|------------------------------------------|----------------------10-12---------------|
G|------------------------------------------|---------------------------/12-11-9-----9~|
D|------------------------------------------|------------------------------------11----|
A|------------------------------------------|------------------------------------------|
E|------------------------------------------|------------------------------------------|

	27					28
   Hold me                                        Hold me
e|------------------------------------------|------------------------------------------|
B|------------------------------------------|-------------------------------------12~~-|
G|-~~~~~~~~\---------11b~--11b~r11p9~~~~~~~-|------------------------------------------|
D|------------------------------------------|------------------------------------------|
A|------------------------------------------|------------------------------------------|
E|------------------------------------------|------------------------------------------|

	29					30
                                         I can feel your touch
e|------------------------------------------|------------------------------------------|
B|-~~~--------------------------------------|------------------------------------------|
G|-------13--\\--11------9~~~~~~~~~~~~~-----|------------------------------------------|
D|------------------------------------------|------------------------------------------|
A|------------------------------------------|----------------(5b~r~\)------------------|
E|------------------------------------------|-----------------5b~r~\-------------------|
 |					    |					       |
e|------------------------------------------|------------------------------------------|
B|------------------------------------------|------------------------------------------|
G|------------------------------------------|------------------------------------------|
D|------------------------------------------|------------------------------------------|
A|--7-7-7-7---7-7-7-7---5-5-5-5---5-5-5-5---|--4-4-4-4---4-4-4-4---2-2-2-2---2-2-2-2---|
E|------------------------------------------|------------------------------------------|

	31					32
    Ah                Ah                   Ah
e|------12----------------14----------------|---17b~~~~~~~~~~~~~~~~~~~~~~~~~-----------|
B|------15b~--------------17b~--------------|------------------------------------------|
G|------------------------------------------|------------------------------------------|
D|------------------------------------------|------------------------------------------|
A|------------------------------------------|------------------------------------------|
E|------------------------------------------|------------------------------------------|
 |					    |					       |
e|------------------------------------------|------------------------------------------|
B|------------------------------------------|------------------------------------------|
G|------------------------------------------|------------------------------------------|
D|------------------------------------------|--------------------------------------2~--|
A|--7-7-7-7---7-7-7-7---5-5-5-5---5-5-5-5---|--4-4-4-4---4-4-4-4---2-2-2-2---2p0-------|
E|------------------------------------------|------------------------------------3-----|


VERSE:

  I know what I need
  And you got what I want
  Just use your imagination

  There's a hunger in me
  I just can't seem to please
  Love starvation



CHORUS:
but if...
     ...it feels                if it feels like a good thing
e|--------------------------------|--------------------------------|
B|--------------------------------|--------------------------------|
G|---4---------------4------------|---4---------------4------------|
D|-----5-4-5--5~--5----5-4--5~----|-----5-4-5--5~--5----5-4----4~--|
A|--------------------------------|-------------------------5------|
E|--------------------------------|--------------------------------|
 |				  |				   |
e|--------------------------------|--------------------------------|
B|--------------------------------|--------------------------------|
G|--------------------------------|--------------------------------|
D|---5---------------5------------|---5---------------5------------|
A|-----7-5-7--7~--7----7-5--7~----|-----7-5-7--7~--7----7-5----5~--|
E|--------------------------------|-------------------------7------|

                       ..and it feels alright
e|--------------------------------|--------------------------------|
B|--------------------------------|--------------------------------|
G|---4---------------4------------|---4---------------4---4h6--4~--|
D|-----5-4-5--5~--5----5-4--5~----|-----5-4-5--5~--5----5----------|
A|--------------------------------|--------------------------------|
E|--------------------------------|--------------------------------|
 |				  |				   |
e|--------------------------------|--------------------------------|
B|--------------------------------|--------------------------------|
G|--------------------------------|--------------------------------|
D|---5---------------5------------|---5---------------5---5h7--5~--|
A|-----7-5-7--7~--7----7-5--7~----|-----7-5-7--7~--7----7----------|
E|--------------------------------|--------------------------------|


                            If it  feels like a good thing
e|--------------------------------|--------------------------------|
B|--------------------------------|--------------------------------|
G|---4---------------4------------|---4---------------4------------|
D|-----5-4-5--5~--5----5-4--5~----|-----5-4-5--5~--5----5-4----4~--|
A|--------------------------------|-------------------------5------|
E|--------------------------------|--------------------------------|
 |				  |				   |
e|--------------------------------|--------------------------------|
B|--------------------------------|--------------------------------|
G|--------------------------------|--------------------------------|
D|---5---------------5------------|---5---------------5------------|
A|-----7-5-7--7~--7----7-5--7~----|-----7-5-7--7~--7----7-5----5~--|
E|--------------------------------|-------------------------7------|

                          ..and it feels alright
e|--------------------------------|--------------------------------|
B|--------------------------------|--------------------------------|
G|---4---------------4------------|---4---------------4---4h6--4~--|
D|-----5-4-5--5~--5----5-4--5~----|-----5-4-5--5~--5----5----------|
A|--------------------------------|--------------------------------|
E|--------------------------------|--------------------------------|
 |				  |				   |
e|--------------------------------|--------------------------------|
B|--------------------------------|--------------------------------|
G|--------------------------------|--------------------------------|
D|---5---------------5------------|---5---------------5---5h7--5~--|
A|-----7-5-7--7~--7----7-5--7~----|-----7-5-7--7~--7----7----------|
E|--------------------------------|--------------------------------|


OUTRO:
                                    Feels like a good thing
e|--12b~~~~~~~~~~~~~~~~~~~~~~~~~~-|-14b~~~~~~~~~~~~~~~~~~~~~~~~~~~-|
B|--------------------------------|--------------------------------|
G|--------------------------------|--------------------------------|
D|--------------------------------|--------------------------------|
A|--------------------------------|--------------------------------|
E|--------------------------------|--------------------------------|
 |				  |				   |
e|--------------------------------|--------------------------------|
B|--------------------------------|--------------------------------|
G|--------------------------------|--------------------------------|
D|---7---------------7------------|---7---------------7---7h9--7~--|
A|-----9-7-9--9~--9----9-7--9~----|-----9-7-9--9~--9----9----------|
E|--------------------------------|--------------------------------|

                       ..and it feels alright
e|-16b~~~~~~~~~~~~~~~~~~~~~~~~~~~-|-17b~~~~~~~~~~~~~~~~~~~~~~~~~~~-|
B|--------------------------------|--------------------------------|
G|--------------------------------|--------------------------------|
D|--------------------------------|--------------------------------|
A|--------------------------------|--------------------------------|
E|--------------------------------|--------------------------------|
 |				  |				   |
e|--------------------------------|--------------------------------|
B|--------------------------------|--------------------------------|
G|--------------------------------|--------------------------------|
D|---7---------------7------------|---7---------------7------------|
A|-----9-7-9--9~--9----9-7--9~----|-----9-7-9--9~--9----9-7---7~---|
E|--------------------------------|-------------------------9------|



                                    Feels like a good thing
e|--19b~~~~~~~~~~~~~~~~~~~~~~~~~~-|-21b~~~~~~~~~~~~~~~~~~~~~~~~~~~-|
B|--------------------------------|--------------------------------|
G|--------------------------------|--------------------------------|
D|--------------------------------|--------------------------------|
A|--------------------------------|--------------------------------|
E|--------------------------------|--------------------------------|
 |				  |				   |
e|--------------------------------|--------------------------------|
B|--------------------------------|--------------------------------|
G|--------------------------------|--------------------------------|
D|---7---------------7------------|---7---------------7---7h9--7~--|
A|-----9-7-9--9~--9----9-7--9~----|-----9-7-9--9~--9----9----------|
E|--------------------------------|--------------------------------|

                       ..and it feels alright
e|-22b~~~~~~~~~~~~~~~~~~~~~~~~~~~-|-24b~~~~~~~~~~~~~~~~~~~~~~~~~~~-|
B|--------------------------------|--------------------------------|
G|--------------------------------|--------------------------------|
D|--------------------------------|--------------------------------|
A|--------------------------------|--------------------------------|
E|--------------------------------|--------------------------------|
 |				  |				   |
e|--------------------------------|--------------------------------|
B|--------------------------------|--------------------------------|
G|--------------------------------|--------------------------------|
D|---7---------------7------------|---7---------------7------------|
A|-----9-7-9--9~--9----9-7--9~----|-----9-7-9--9~--9----9-7---7~---|
E|--------------------------------|-------------------------9------|


e|--------------------------------|----------------|----------------|
B|--------------------------------|----------------|----------------|
G|-4b~--4b~-4b~--4b~-4b~-4b~-4b~~~|~~~~~~~~~~~~~~r-|----------------|
D|--------------------------------|----------------|----------------|
A|--------------------------------|----------------|----------------|
E|--------------------------------|----------------|----------------|
 |				  |		   |                |
e|--------------------------------|----------------|----------------|
B|--------------------------------|----------------|----------------|
G|--------------------------------|----------------|----------------|
D|-2------------------------------|-3--------------|-4--------------|
A|-2------------------------------|-3--------------|-4--------------|
E|-0------------------------------|-1--------------|-2--------------|


| /  slide up
| \  slide down
| h  hammer-on
| p  pull-off
| ~  vibrato
| +  harmonic
| x  Mute note
===============================================================================

            
            
Suggest correction
Creating personal tab
Creating personal tab
You can edit any tab online and save it as your Personal.

You can edit, replace or remove any tab part or add personal notes – all changes will be seen only by you.

Personal tabs can be accessed anytime from any device, even offline.
Learn more »
Give kudos to tab author, rate the tab!
1 2 3 4 5
comments
print report bad tab
guest
Wanna post a correction for this tab? Suggest correction