Oops, an error
Loading. Please wait.

I Dont Want To Say Goodbye Acoustic tab

46 views 1 this week
no commentswrite comment
1 2 3 4 5
3 more votes to show rating
add to favorites
×
Save as Personal and add changes to this tab that will be seen only by you. Learn more ›
×
You can save this tab as Personal to edit and correct it or add notes. All changes will be seen only by you. Learn more »
launch autoscroll
font size
0
reset
how to read this tab
guitar tuner
edit
Autoscroll
slow
fast
+/-
esc
set tempo
stop
"I DON'T WANT TO SAY GOODBYE"
Michael Steele and Crash Wisdom
Tabs by: LazyDogPeachy
https://www.youtube.com/watch?v=808EuHJGChQ
For more info on Michael Steele, visit: micki-steele.net
Crash Wisdom was the short-lived side band of Bangle, Michael Steele. No albums or
any studio recordings had been found until now. The only recording of them
was from a bootleg of their 10-song live shows in 1994.
Standard tune; This is an integrated Tab for Rhythm and Lead Guitars plus lyrics.
               Play/sing notes/chords and lyrics that are bound within the measures.
Guitar 1 - 6 string acoustic
Guitar 2 - 12 string acoustic
Note: Use standard chords if not provided.

Asus2    - x02200
A7sus4   - x02233
Bm7/A    - x0443x
D/F#     - 2x0232
Dsus2    - xx0230
Cadd9    - 032033
G/B      - x20033

[Intro]
Guitar 2 
   Cadd9 G/B             D           Caddd9 G/B             D   
Guitar 1 
e|-----------------------------2----|------------------------------------|
B|----3-------3------------------2--|----3-------3-----------------------|
G|----0-------0--------------0------|----0-------0-----------------------|
D|--2-----0---------------0---------|--2-----0---------------0-----------|
A|-3----2-----------0---2-----------|-3----2-----------0---2---2-3.2.0---|
E|--------------0h2-----------------|--------------0h2-----------------2-|

Guitar 2                                                  
  Cadd9  G/B            D              G   G     G   
Guitar 1
e|-----------------------------2----|--3---3-----3-----------------------|
B|-----3-------3-----------------2--|--3---3-----3-----------------------|
G|-----0-------0-------------0------|--0---0-----0-----------------------|
D|---2-----0--------------0---------|--0---0-----0-----------------------|
A|-3-----2----------0---2-----------|--2---2-----2-----------------------|
E|--------------0h2-----------------|--3---3-----3-----------------------|

 
[VERSE 1]
Guitar 2
   D                  G     A7sus4    D              G     A7sus4
Guitar 1
e|---------2h3p2--------------------|--------2h3p2------------------|
B|------3--------3---------------3--|-----3--------2-------------3--|
G|---2------------2---------------2-|---2-------------------------2-|
D|-0-----------------------0---2----|-0--------------------0---2----|
A|----------------------2----0------|--------------------2---0------|
E|-------------------3--------------|-----------------3-------------|
   Feel   the        wind    through  trees,          The    of
                     blow    the                     rhythm
Guitar 2   
  D                   G            A7sus4    
Guitar 1
e|---------2h3p2-------3----3------|---3----------------------------|
B|------3--------3-----3----3------|---3----------------------------|
G|---2------------2----0----0------|---2----------------------------|
D|-0-------------------0-0--0-0----|---2----------------------------|
A|---------------------2-2--2-2----|---0----------------------------|
E|---------------------3-3--3-3----|--------------------------------|
   the sea,        The things          me.
                     you meant to
Guitar 2
  D                   G     A7sus4    D               G     A7sus4
Guitar 1
e|---------2h3p2--------------------|--------2h3p2------------------|
B|------3--------3---------------3--|-----3--------2-------------3--|
G|---2------------2---------------2-|---2-------------------------2-|
D|-0-----------------------0---2----|-0--------------------0---2----|
A|----------------------2----0------|--------------------2---0------|
E|-------------------3--------------|-----------------3-------------|
   Love   is         just a photo      graph,     I   hold  in my 
Guitar2                                                  it
   D                   Em7   D/F#      G              
Guitar 1                                                  
e|---------2h3p2-------3-----------|---3--------------------------|
B|------3--------3-----3------3----|---3--------------------------|
G|---2------------2----0-----2-2---|---0--------------------------|
D|-0-------------------2-2---0-0---|---0--------------------------|
A|---------------------2-2---0-0---|---2----------------------0h2-|
E|---------------------0-0---2-2---|---3----------------0h2-------|
   hands,      And I  want   to   you      come back.                
                     
[Chorus]
(Guitars 1 & 2, Play Chords) 
Bm              E
   The time has come
             Bm      Bm7/A  E
And we can’t hold on any    longer
G       A7sus4       D     G
  And I feel so lost inside
D            E          Bm      Bm7/A  E
As time goes on we will find an under -standing
G            A7sus4          
 But I don’t want to say goodbye.

[Interlude]
Guitar 2
  Cadd9  G/B             D            Caddd9 G/B             D  
Guitar 1 
e|-----------------------------2----|------------------------------------|
B|----3-------3------------------2--|----3-------3-----------------------|
G|----0-------0--------------0------|----0-------0-----------------------|
D|--2-----0---------------0---------|--2-----0---------------0-----------|
A|-3----2-----------0---2-----------|-3----2-----------0---2---2-3.2.0---|
E|--------------0h2-----------------|--------------0h2-----------------2-|

Guitar 2                                                  
  Cadd9  G/B             D            G   G     G   
Guitar 1
e|-----------------------------2----|--3---3-----3-----------------------|
B|-----3-------3-----------------2--|--3---3-----3-----------------------|
G|-----0-------0-------------0------|--0---0-----0-----------------------|
D|---2-----0--------------0---------|--0---0-----0-----------------------|
A|-3-----2----------0---2-----------|--2---2-----2-----------------------|
E|--------------0h2-----------------|--3---3-----3-----------------------|

[Verse 2]
Guitar 2
   D                  G     A7sus4    D              G     A7sus4
Guitar 1
e|---------2h3p2--------------------|--------2h3p2------------------|
B|------3--------3---------------3--|-----3--------2-------------3--|
G|---2------------2---------------2-|---2-------------------------2-|
D|-0-----------------------0---2----|-0--------------------0---2----|
A|----------------------2----0------|--------------------2---0------|
E|-------------------3--------------|-----------------3-------------|
   Dreams           the      ing in-  side,       The wis-   of    a
                    whisper-                          dom
Guitar 2   
  D                   G            A7sus4    
Guitar 1
e|---------2h3p2-------3----3------|---3----------------------------|
B|------3--------3-----3----3------|---3----------------------------|
G|---2------------2----0----0------|---2----------------------------|
D|-0-------------------0-0--0-0----|---2----------------------------|
A|---------------------2-2--2-2----|---0----------------------------|
E|---------------------3-3--3-3----|--------------------------------|
   child,        The struggle to       vive.
                     sur-
Guitar 2
  D                   G     A7sus4    D               G     A7sus4
Guitar 1
e|---------2h3p2--------------------|--------2h3p2------------------|
B|------3--------3---------------3--|-----3--------2-------------3--|
G|---2------------2---------------2-|---2-------------------------2-|
D|-0-----------------------0---2----|-0--------------------0---2----|
A|----------------------2----0------|--------------------2---0------|
E|-------------------3--------------|-----------------3-------------|
   Now,         a -  nother mor-      comes,    The   mise   of the
                            ning                pro-
Guitar2                                                 
   D                   Em7   D/F#      G              
Guitar 1                                                  
e|---------2h3p2-------3-----------|---3--------------------------|
B|------3--------3-----3------3----|---3--------------------------|
G|---2------------2----0-----2-2---|---0--------------------------|
D|-0-------------------2-2---0-0---|---0--------------------------|
A|---------------------2-2---0-0---|---2----------------------0h2-|
E|---------------------0-0---2-2---|---3----------------0h2-------|
   sun,      Now I     want  to  feel     alive.                
                       
[Chorus 2]
(Guitars 1 and 2 play chords)
Bm              E
   The time has come
             Bm      Bm7/A  E
And we can’t hold on any    longer
G        A7sus4          D    G
  It’s a sadness I can’t fight
D           E              Bm      Bm7/A  E
Time passes by and we will find an under- standing
G            A7sus4
 But I don’t want to say goodbye.
D           E
I can’t let go
                 Bm  Bm7/A  E
But I can’t hold on  any    longer
G       A7sus4        D     G
 And it hurts so much inside
Bm            E           Bm      Bm7/A  E
  I know some day we will find an under- standing
G             A7sus4          
  But I don’t want to say good-

Guitar 2
   Bm7                  E
Guitar 1(harmonics)
e|--------7----------|--------------------|
B|--7--------7-------|--------------------|
G|-----7--------7----|--9-----------------|
D|-----------------7-|--------------------|
A|-------------------|--------------------|
E|-------------------|--------------------|
  bye...
G            A7sus4         
  No I don’t want to say goodbye.

[Outro]
Guitar 2
  Cadd9  G/B             D           Caddd9 G/B            D 
Guitar 1 
e|-----------------------------2----|------------------------------------|
B|----3-------3------------------2--|----3-------3-----------------------|
G|----0-------0--------------0------|----0-------0-----------------------|
D|--2-----0---------------0---------|--2-----0---------------0-----------|
A|-3----2-----------0---2-----------|-3----2-----------0---2---2-3.2.0---|
E|--------------0h2-----------------|--------------0h2-----------------2-|

Guitar 2                                                  
  Cadd9  G/B             D             G     Dsus2      Asus2
Guitar 1
e|-----------------------------2----|--3------0-----------0---------------|
B|-----3-------3-----------------2--|--3------3-----------0---------------|
G|-----0-------0-------------0------|--0------2-----------2---------------|
D|---2-----0--------------0---------|--0------0-----------2---------------|
A|-3-----2----------0---2-----------|--2------------------0---------------|
E|--------------0h2-----------------|--3----------------------------------|


*******************************
| h   = hammer on
| p   = pull off
| .   = stacatto
*******************************

            
            
Suggest correction
Creating personal tab
Creating personal tab
You can edit any tab online and save it as your Personal.

You can edit, replace or remove any tab part or add personal notes – all changes will be seen only by you.

Personal tabs can be accessed anytime from any device, even offline.
Learn more »
Give kudos to tab author, rate the tab!
1 2 3 4 5
comments
print report bad tab
guest
You may want to rate the tab now too:
select rating
Wanna post a correction for this tab? Suggest correction