Oops, an error
Loading. Please wait.

Rip Acoustic bass

22 views 1 this week
no commentswrite comment
1 2 3 4 5
3 more votes to show rating
add to favorites
×
Save as Personal and add changes to this tab that will be seen only by you. Learn more ›
×
You can save this tab as Personal to edit and correct it or add notes. All changes will be seen only by you. Learn more »
launch autoscroll
font size
0
reset
guitar tuner
edit
Autoscroll
slow
fast
+/-
esc
set tempo
stop
https://www.youtube.com/watch?v=AUiLJc0l8jM
Standard tune; 4/4 except for a measure marked as 2/4;
5 string bass

Note: This is an integrated lyrics and bass tab; sing/play lyrics/tabs bound within the measure.

[Intro]
G|---------------------|---------------------|
D|---------------------|---------------------|
A|---------------------|---------------------|
E|---------------------|---------------------|
B|-5-5--3--5-5-5---3-4-|-5-5--3--5-5-5---3-4-| (3x)

[Verse 1]
G|---------------------|---------------------|---------------------|---------------------|
D|---------------------|---------------------|---------------------|---------------------|
A|---------------------|---------------------|---------------------|---------------------|
E|---------------------|-----------------3-4-|-5-5--3--5-5-5---5-3-|---------------------|
B|-5-5--3--5-5-5---3-4-|-5-5--3--5-5-5-------|---------------------|-5-5--3--5-5-5---3-4-|
   Sunday                solitaire             Honing your           pool.
                                               agenda by the

G|---------------------|---------------------|---------------------|---------------------|
D|---------------------|---------------------|---------------------|---------------------|
A|---------------------|---------------------|---------------------|---------------------|
E|---------------------|-----------------3-4-|-5-5--3--5-5-5---5-3-|---------------------|
B|-5-5--3--5-5-5---3-4-|-5-5--3--5-5-5-------|---------------------|-5-5--3--5-5-5---3-4-|
   New friends           must be               Everyone has          you.
                              found            had enough of
 
G|---------------------|---------------------|---------------------|---------------------|
D|---------------------|---------------------|---------------------|---------------------|
A|---------------------|---------------------|---4-4-4-4-2-2-2-2---|-----------------4---|
E|---2-2-2-2-2-2-2-2---|---5-5-5-5-5-5-5-5---|---------------------|---5-5-5-5-5-5-5-----|
B|---------------------|---------------------|---------------------|---------------------|
   So now they know        river.               in a heartbeat                self......
   you’d sell them                               just to save your-
     down the    
                
[Chorus]
G|---------------------|---------------------|---------------------|---------------------|
D|---------------------|---------------------|---------------------|---------------------|
A|---------------------|---5~----------------|---------------------|--5-5-5-5------------|
E|--0~--------0~-------|------------5---5----|--0~--------0---0----|-----------5--5--5-5-|
B|---------------------|---------------------|---------------------|---------------------|
    It wasnt any fun      stepped on every      Traded your heart's   greed.
                                everyone          desire for

G|---------------------|---------------------|---------------------|---------------------|
D|---------------------|---------------------|---------------------|---------------------|
A|---------------------|---5~----------------|-4-4-4\2-2-2---------|---------------------|
E|---------------------|-------------5\0-----|--------------2--2-2-|--5~----7~-----------|
B|--5-----5--5-----5-7-|---------------------|---------------------|---------------------|
    There's no salvation  sanitised  soul      me ,         oh-ooh    R.I.  P.
              for a        You're not fooling
 
[Verse 2]
G|---------------------|---------------------|---------------------|---------------------|
D|---------------------|---------------------|---------------------|---------------------|
A|---------------------|---------------------|---------------------|---------------------|
E|---------------------|-----------------3-4-|-5-5--3--5-5-5---5-3-|---------------------|
B|-5-5--3--5-5-5---3-4-|-5-5--3--5-5-5-------|---------------------|-5-5--3--5-5-5---3-4-|
   Mirror                on the wall           Do you think any-     cares?
                                                   body really

G|---------------------|---------------------|---------------------|---------------------|
D|---------------------|---------------------|---------------------|---------------------|
A|---------------------|---------------------|---------------------|---------------------|
E|---------------------|-----------------3-4-|-5-5--3--5-5-5---5-3-|---------------------|
B|-5-5--3--5-5-5---3-4-|-5-5--3--5-5-5-------|---------------------|-5-5--3--5-5-5---3-4-|
   For your bloated      bank accounts         And all your phony    affairs...
                                                    little love

G|---------------------|---------------------|---------------------|---------------------|
D|---------------------|---------------------|---------------------|---------------------|
A|---------------------|---------------------|---4-4-4-4-2-2-2-2---|-----------------4---|
E|---2-2-2-2-2-2-2-2---|---5-5-5-5-5-5-5-5---|---------------------|---5-5-5-5-5-5-5-----|
B|---------------------|---------------------|---------------------|---------------------|
   And who died and        Holy Alchemist?       Selling shit in a     sale.
          made you                                 pile fit for


[Chorus]
G|---------------------|---------------------|---------------------|---------------------|
D|---------------------|---------------------|---------------------|---------------------|
A|---------------------|---5~----------------|---------------------|--5-5-5-5------------|
E|--0~--------0~-------|------------5---5----|--0~--------0---0----|-----------5--5--5-5-|
B|---------------------|---------------------|---------------------|---------------------|
    It wasnt any fun      stepped on every      Traded your heart's   greed.
                                everyone          desire for

                                                                                            2/4
G|---------------------|---------------------|---------------------|---------------------|--------|
D|---------------------|---------------------|---------------------|---------------------|--------|
A|---------------------|---5~----------------|-4-4-4\2-2-2---------|---------------------|--------|
E|---------------------|-------------5\0-----|--------------2--2-2-|--5~----7~-----------|-7/14\0-|
B|--5-----5--5-----5-7-|---------------------|---------------------|---------------------|--------|
    There's no salvation  sanitised  soul      me ,         oh-ooh    R.I.  P.
              for a        You're not fooling

[Solo]        
G|---------------------|---------------------|---------------------|---------------------|
D|---------------------|---------------------|---------------------|---------------------|
A|---------------------|---------------------|-2-2-----------------|---------------------|
E|-2-2--0--2--2-2--0-1-|-2-2--0--2--2-2--0-1-|---------------------|-2-2--2-0-2----------|
B|---------------------|---------------------|-----3-5--5-5--5-3-5-|--------------2--2-2-|

G|---------------------|---------------------|---------------------|---------------------|
D|---------------------|---------------------|---------------------|---------------------|
A|---------------------|---------------------|-2-2-----------------|---------------------|
E|-2-2--0--2--2-2--0-1-|-2-2--0--2--2-2--0-1-|---------------------|-2-2--2-2--2-2--2-0-2|
B|---------------------|---------------------|-----3-5--5-5--5-3-5-|---------------------|

G|---------------------|---------------------|---------------------|---------------------|
D|---------------------|---------------------|---------------------|---------------------|
A|---------------------|-2-2--2-2--2-2--2-2--|-/6-6-6-6-6-\4-4-4-4-|---------------------|
E|-4-4--4-4--4-4--4-4--|---------------------|---------------------|-4-4-4-4-4-4-4-4-4-4-|
B|---------------------|---------------------|---------------------|---------------------|

G|-----------------------|
D|--------/9-9--9-9-9-9--|
A|-2-2-2-2-------------9-|
E|---------------------7-|
B|-----------------------|

[Chorus]
G|---------------------|---------------------|---------------------|---------------------|
D|---------------------|---------------------|---------------------|---------------------|
A|---------------------|---5~----------------|---------------------|--5-5-5-5------------|
E|--0~--------0~-------|------------5---5----|--0~--------0---0----|-----------5--5--5-5-|
B|---------------------|---------------------|---------------------|---------------------|
    It wasnt any fun      stepped on every      Traded your heart's   greed.
                                everyone          desire for
                                                                                           
G|---------------------|---------------------|---------------------|---------------------|
D|---------------------|---------------------|---------------------|---------------------|
A|---------------------|---5~----------------|-4-4-4-4-2-2-2-------|---------------------|
E|---------------------|-------------5\0-----|---------------2-2-2-|-2-2-2-2-2----5--4---|
B|--5-----5--5-----5-7-|---------------------|---------------------|---------------------|
    There's no salvation  sanitised  soul      me ,         oh-ooh                R. I. 
              for a        You're not fooling

G|---------------------|---------------------|---------------------|---------------------|
D|---------------------|---------------------|---------------------|---------------------|
A|-4-4-4-4-2-2-2-------|---------------------|-4-4-4-4-2-2-2-------|---------------------|
E|---------------2-2-2-|-2-2-2-2-2----5--4---|---------------2-2-2-|-2-2-2-2-2----5--4---|
B|---------------------|---------------------|---------------------|---------------------|
   P.             oh-ooh              R. I.    P.            oh-ooh               R. I.

G|---------------------|---------------------|---------------------|---------------------|
D|---------------------|---------------------|---------------------|---------------------|
A|-4-4-4-4-2-2-2-------|---------------------|-4-4-4-4-2-2-2-------|---------------------|
E|---------------2-2-2-|-2-2-2-2-2----5--4---|---------------2-2-2-|-2-2-2-2-2----5~-----|
B|---------------------|---------------------|---------------------|---------------------|
    P.           oh-ooh               R. I.    P.            oh-ooh               R. I.

G|---------------------|
D|---------------------|
A|---------------------|
E|--7~-----------------|
B|---------------------|
    P.


************************

| / - slide up
| \ - slide down
| ~ - vibrato

************************

            
            
Suggest correction
Creating personal tab
Creating personal tab
You can edit any tab online and save it as your Personal.

You can edit, replace or remove any tab part or add personal notes – all changes will be seen only by you.

Personal tabs can be accessed anytime from any device, even offline.
Learn more »
Give kudos to tab author, rate the tab!
1 2 3 4 5
comments
print report bad tab
guest
You may want to rate the tab now too:
select rating
Wanna post a correction for this tab? Suggest correction