Oops, an error
Loading. Please wait.

Lettre A France bass

version 1
version 1

Whole song

Interactive

10 views 1 this week
no commentswrite comment
1 2 3 4 5
3 more votes to show rating
add to favorites
×
Save as Personal and add changes to this tab that will be seen only by you. Learn more ›
×
You can save this tab as Personal to edit and correct it or add notes. All changes will be seen only by you. Learn more »
launch autoscroll
font size
0
reset
guitar tuner
backing track
0:00
0:00
edit
Autoscroll
slow
fast
+/-
esc
set tempo
stop
Artist: Michel Polnareff
Song: Lettre A France
Tuning - Standard
Time - 4/4
tabbed by electricbunny

[Intro]                                                             
G|--------------------------------|--------------------------------|
D|--------------------------------|--------------------------------|
A|--------------------------------|3-------------------------------|
E|3-------------------------------|--------------------------------|
 
G|--------------------------------|--------------------------------|
D|--------------------------------|0-------------------------------|
A|--------------------------------|--------------------------------|X2
E|1-------------------------------|--------------------------------|
 
G|--------------------------------|7-------------------------------|
D|0-------------------------------|--------------------------------|
A|--------------------------------|--------------------------------|
E|--------------------------------|--------------------------------|
 
G|0-------------------------------|--------------------------------|
D|--------------------------------|--------------------------------|
A|--------------------------------|3-------------------------------|
E|--------------------------------|--------------------------------|
 
G|--------------------------------|--------------------------------|
D|--------------------------------|0-------------------------------|
A|--------------------------------|--------------------------------|
E|1-------------------------------|--------------------------------|
 
G|--------------------------------|--------------------------------|
D|1-----------------------1-------|----------------0---------------|
A|--------------------------------|0-------------------------------|
E|--------------------------------|--------------------------------|
 
G|0-------------------------------|--------------------------------|
D|----------------0---------------|--------------------------------|
A|--------------------------------|1-------------------------------|
E|--------------------------------|----------------3---------------|
 
[Verse]                                                             
G|0-----------------------2-------|3-------3-------5-------2-------|
D|--------------------------------|----------------------------5---|
A|--------------------------------|--------------------------------|
E|--------------------------------|--------------------------------|
 
G|2-----------------------3-5-----|5---------------3-------2---3---|
D|--------------------------------|--------------------------------|
A|--------------------------------|--------------------------------|
E|--------------------------------|--------------------------------|
 
G|----------------------------0---|2-----------------------0---2---|
D|1-----------------------3-------|--------------------------------|
A|--------------------------------|--------------------------------|
E|--------------------------------|--------------------------------|
 
G|--------------------------------|7-------------------5-------5---|
D|0-------------------------------|------------------------8-------|
A|--------------------------------|--------------------------------|
E|--------------------------------|--------------------------------|
 
G|7-------------------------------|8-----------------------7-------|
D|--------8-------7-------5-------|--------------------------------|
A|--------------------------------|--------------------------------|
E|--------------------------------|--------------------------------|
 
G|5-------3-------2-------5-------|7-----------------------7-------|
D|--------------------------------|--------------------------------|
A|--------------------------------|--------------------------------|
E|--------------------------------|--------------------------------|
 
G|7-------5-----------------------|2-------------------------------|
D|------------------------8-------|----------------0---------------|
A|--------------------------------|--------------------------------|
E|--------------------------------|--------------------------------|
 
G|0-------------------------------|--------------------------------|
D|------------------------0-------|--------------------------------|
A|--------------------------------|--------------------------------|
E|--------------------------------|3-----------------------3-------|
 
[Interlude]                                                         
G|----------------0---------------|--------------------------------|
D|--------------------------------|--------------------------------|
A|--------------------------------|3-------------------------------|
E|3-------------------------------|--------------------------------|
 
G|--------------------------------|--------------------------------|
D|----------------3---------------|------------------------3-------|
A|--------------------------------|1-------------------------------|
E|1-------------------------------|--------------------------------|
 
G|1-------------------------------|2-------------------------------|
D|--------------------------------|------------------------1-------|
A|--------------------------------|--------------------------------|
E|--------------------------------|--------------------------------|
 
G|--------------------------------|--------------------------------|
D|0-------------------------------|--------0---1---0---1---0-------|
A|--------------------------------|--------------------------------|
E|--------------------------------|--------------------------------|
 
[Verse]                                                             
G|--------------------------------|--------------------------------|
D|--------------------------------|------------------------0---1---|
A|------------------------0---1---|3-------------------------------|
E|3---------------3---------------|--------------------------------|
 
G|--------------------------------|------------------------0-------|
D|3-------------------------------|----------------3---------------|
A|--------------------------------|1-------------------------------|
E|----------------1---------------|--------------------------------|
 
G|--------------------------------|--------------------------------|
D|--------------------3---1-------|--------------------------------|
A|--------------------------------|0-----------------------3-------|
E|--------------------------------|--------------------------------|
 
G|--------------------------------|--------------------------------|
D|0-----------------------0-------|0---------------0---------------|
A|----------------------------0---|--------------------------------|
E|--------------------------------|--------------------------------|
 
G|----------------3-3-2---0-------|--------------------------------|
D|----------------------------0---|------------------------1-------|
A|--------------------------------|3-------------------------------|
E|3-------------------------------|--------------------------------|
 
G|--------------------------------|--------------------------------|
D|3-------------------------------|--------------------------------|
A|----------------------------0---|1---------------1---------------|
E|--------------------1---3-------|--------------------------------|
 
G|--------------------------------|--------------------------------|
D|1-----------------------1-------|----------------0---------------|
A|--------------------------------|0-------------------------------|
E|--------------------------------|--------------------------------|
 
G|0-------------------------------|--------------------------------|
D|----------------0---------------|--------------------------------|
A|--------------------------------|1-------------------------------|
E|--------------------------------|----------------3---------------|
 
[Interlude]                                                         
G|----------------0---------------|----------------------------0---|
D|--------------------------------|--------------------0---1-------|
A|--------------------------------|3-------------------------------|
E|3-------3-----------------------|--------------------------------|
 
G|--------------------------------|--------------------------------|
D|3-------------------------------|----------------------------0---|
A|--------------------------------|1-----------------1-----3-------|
E|------------------------1-------|--------------------------------|
 
G|--------------------------------|2-------------------------------|
D|------------------------1-------|--------------------------------|
A|--------------------------------|--------------------------------|
E|4-------------------------------|--------------------------------|
 
G|--------------------------------|--------------------------------|
D|0-------------------------------|----------------0---------------|
A|--------------------------------|--------------------------------|
E|--------------------------------|--------------------------------|
 
[Verse]                                                             
G|--------------------------------|--------------------------------|
D|--------------------------------|------------------------0---1---|
A|------------------------0---1---|3-------------------------------|
E|3---------------3---------------|--------------------------------|
 
G|--------------------------------|------------------------0-------|
D|3-------------------------------|----------------3---------------|
A|--------------------------------|1-------------------------------|
E|----------------1---------------|--------------------------------|
 
G|--------------------------------|--------------------------------|
D|--------------------3---1-------|--------------------------------|
A|--------------------------------|0-----------------------3-------|
E|--------------------------------|--------------------------------|
 
G|--------------------------------|--------------------------------|
D|0-----------------------0-------|0---------------0---------------|
A|----------------------------0---|--------------------------------|
E|--------------------------------|--------------------------------|
 
G|----------------3-3-2---0-------|--------------------------------|
D|----------------------------0---|------------------------1-------|
A|--------------------------------|3-------------------------------|
E|3-------------------------------|--------------------------------|
 
G|--------------------------------|--------------------------------|
D|3-------------------------------|--------------------------------|
A|----------------------------0---|1---------------1---------------|
E|--------------------1---3-------|--------------------------------|
 
G|--------------------------------|--------------------------------|
D|1-----------------------1-------|----------------0---------------|
A|--------------------------------|0-------------------------------|
E|--------------------------------|--------------------------------|
 
G|0-------------------------------|--------------------------------|
D|----------------0---------------|--------------------------------|
A|--------------------------------|1-------------------------------|
E|--------------------------------|----------------3---------------|
 
[Chorus]                                                            
G|--------------------------------|--------------------------------|
D|1-----------------------1-------|1-------------------------------|
A|--------------------------------|--------------------------------|
E|--------------------------------|--------------------------------|
 
G|--------------------------------|--------------------------------|
D|0-----------------------0-------|0-------------------------------|
A|----------------------------0---|--------------------0-----------|
E|--------------------------------|--------------------------------|
 
G|--------------------------------|--------------------------------|
D|--------------------------------|--------------------------------|
A|----------------0---------------|1---------------3---------------|
E|3-------------------------------|--------------------------------|
 
G|--------------------------------|--------------------------------|
D|0-----------------------0-------|0---------------0-----------0---|
A|----------------------------0---|----------------------0---------|
E|--------------------------------|--------------------------------|
 
G|--------------------------------|--------------------------------|
D|1-----------------------1-------|1-------------------------------|
A|--------------------------------|--------------------------------|
E|--------------------------------|--------------------------------|
 
G|--------------------------------|--------------------------------|
D|0-----------------------0-0-----|0-----------------------0-------|
A|----------------------------0---|--------------------------------|
E|--------------------------------|--------------------------------|
 
G|--------------------------------|--------------------------------|
D|--------------------------------|--------------------------------|
A|----------------0---------------|1---------------3---------------|
E|3-------------------------------|--------------------------------|
 
G|--------------------------------|--------------------------------|
D|0-------------------------------|--------------------------------|
A|--------------------------------|--------------------------------|
E|--------------------------------|--------------------------------|
 
G|0-------------------------------|--------------------------------|
D|--------------------------------|--------------------------------|
A|--------------------------------|--------------------------------|
E|--------------------------------|--------------------------------|
 
[Middle 8]                                                          
G|--------------------------------|--------------------------------|
D|--------------------------------|--------------------------------|
A|--------------------------------|--------------------------------|X4
E|--------------------------------|--------------------------------|
 
[Verse]                                                             
G|--------------------------------|--------------------------------|
D|--------------------------------|------------------------0---1---|
A|------------------------0---1---|3-------------------------------|
E|3---------------3---------------|--------------------------------|
 
G|--------------------------------|------------------------0-------|
D|3-------------------------------|----------------3---------------|
A|--------------------------------|1-------------------------------|
E|----------------1---------------|--------------------------------|
 
G|--------------------------------|--------------------------------|
D|--------------------3---1-------|--------------------------------|
A|--------------------------------|0-----------------------3-------|
E|--------------------------------|--------------------------------|
 
G|--------------------------------|--------------------------------|
D|0-----------------------0-------|0---------------0---------------|
A|----------------------------0---|--------------------------------|
E|--------------------------------|--------------------------------|
 
G|----------------3-3-2---0-------|--------------------------------|
D|----------------------------0---|------------------------1-------|
A|--------------------------------|3-------------------------------|
E|3-------------------------------|--------------------------------|
 
G|--------------------------------|--------------------------------|
D|3-------------------------------|--------------------------------|
A|----------------------------0---|1---------------1---------------|
E|--------------------1---3-------|--------------------------------|
 
G|--------------------------------|--------------------------------|
D|1-----------------------1-------|----------------0---------------|
A|--------------------------------|0-------------------------------|
E|--------------------------------|--------------------------------|
 
G|0-------------------------------|
D|--------------------------------|
A|--------------------------------|
E|--------------------------------|

            
            
Suggest correction
Creating personal tab
Creating personal tab
You can edit any tab online and save it as your Personal.

You can edit, replace or remove any tab part or add personal notes – all changes will be seen only by you.

Personal tabs can be accessed anytime from any device, even offline.
Learn more »
Give kudos to tab author, rate the tab!
1 2 3 4 5
comments
print report bad tab
guest
You may want to rate the tab now too:
select rating
Wanna post a correction for this tab? Suggest correction