Oops, an error
Loading. Please wait.

Its You tab

version 2
version 2

Whole song

Interactive

11,358 views 1 this week
3 commentsread comments
1 2 3 4 5
x 17
add to favorites
×
Save as Personal and add changes to this tab that will be seen only by you. Learn more ›
×
You can save this tab as Personal to edit and correct it or add notes. All changes will be seen only by you. Learn more »
launch autoscroll
font size
0
reset
how to read this tab
guitar tuner
edit
Autoscroll
slow
fast
+/-
esc
set tempo
stop
Song: It's You
Artist: Michelle Branch
Album: Hotel Paper
Tabbed by: Lendon (lmwall25@yahoo.com)

This might be my favorite song off this CD. This tab is pretty accurate, but I doubt it's
perfect, so bear with me.


Capo: 4


Intro:
|-2---5-------2---|
|---------3-------|
|-----------------|
|-----------------|
|-----------------|
|-----------------|

|-----2---------0-----------0----------|
|-------3---------3-----3-----3--------|
|---2---------2-------0---0-----0------|
|-0---------4---------------------0----|   x2
|--------------------------------------|
|--------------------------------------|
                                      

Verse:
|-----2---------0-----------0----------|
|-------3---------3-----3-----3--------|
|---2---------2-------0---0-----0------|
|-0---------4---------------------0----|
|--------------------------------------|
|--------------------------------------|


Chorus:                                         
|-----0---------0-----------0----------|
|-------3---------3-----3-----3--------|
|-------------------------0-----0------|
|---0---------0------------------------|  
|-2---------0---------------------0----|
|---------------------3----------------|

Final chord (appegiated):
|-------2------------------------------|
|------3-------------------------------|
|-----2--------------------------------|
|----0---------------------------------|
|---0----------------------------------|
|--x-----------------------------------|




Guitar 2 (electric) Solo:
|--------------------------------------|
|--------------------------------------|
|--------------------------------------|
|--7--9-------7--9---------------------|
|--------5----------5------------------|
|--------------------------------------|
  ^--during chorus---^

|--------------------------------------|
|---------------7-7---10---------------|
|------7-9--9------------7-------------|
|--7h9---------------------------------|
|--------------------------------------|
|--------------------------------------|

|--------------------------------------|
|--------------7-----------------------|
|--7---9-7-7---------------------------|
|-----------------9--------------------|
|--------------------------------------|
|--------------------------------------|



Well, that's it. This is my first full tab, done all by myself. I'm pretty sure about the
solo, but I may be off by a note or two.

            
            
Suggest correction
Creating personal tab
Creating personal tab
You can edit any tab online and save it as your Personal.

You can edit, replace or remove any tab part or add personal notes – all changes will be seen only by you.

Personal tabs can be accessed anytime from any device, even offline.
Learn more »
comments
print report bad tab
3 comments total.
0 reply
SandyJH 10 Feb 07, 2006 06:46 PM

Hey I think the guitar solo goes a little bit more like this:

Guitar 2 (electric) Solo:
|--------------------------------------|
|--------------------------------------|
|--------------------------------------|
|--7--9--0-----7--9--0-----------------|
|--------------------------------------|
|--------------------------------------|
^--during chorus---^

|--------------------------------------|
|---------------7-7---10---------------|
|------7-9---------------7-------------|
|--7h9---------------------------------|
|--------------------------------------|
|--------------------------------------|

|--------------------------------------|
|--------------7-----------------------|
|--------7-7---------------------------|
|-----------------9--------------------|
|--------------------------------------|
|--------------------------------------|

That's just what I hear...you did a fantastic job tho :)

+1 reply
iamWRECKED 10 Sep 04, 2007 01:41 AM

thanks so much for posting these tabs :) it's the most accurate one on this site.

0 reply
harris L 82 May 12, 2008 02:22 AM

it's great...

guest
You may want to rate the tab now too:
select rating
Wanna post a correction for this tab? Suggest correction