Oops, an error
Loading. Please wait.

Wait Here tab

1,908 views 1 this week
1 commentread comment
1 2 3 4 5
2 more votes to show rating
add to favorites
×
Save as Personal and add changes to this tab that will be seen only by you. Learn more ›
×
You can save this tab as Personal to edit and correct it or add notes. All changes will be seen only by you. Learn more »
launch autoscroll
font size
0
reset
how to read this tab
guitar tuner
edit
Autoscroll
slow
fast
+/-
esc
set tempo
stop
Song: Wait Here
Artist: Mick Flannery
Album: White Lies

*my first tab was plain wrong so ive updated it

all parts - capo on 2nd fret


chords
Em  -022000
C5  -x3x0xx
C   -x3x01x  for chorus use x32010
D   -xx0232
G   -320033
G/F#-2x0xxx
 ------------------------------------------------------------------------

INTRO:
 Mick

   Em        C5    C     Em        C5    C     Em        C5    C
|---------------------|---------------------|----------------------|
|---------------------|---------------------|----------------------|
|---------------------|---------------------|----------------------|
|-----2~-------1------|-----2~2-2-----1-----|-----2~-2-2----1------|
|-----------3~----3-3-|-----------3~------3-|------------3~----3-3-|
|--0------------------|--0------------------|--0-------------------|

  Em       C5      C    Em       C5    C      Em
|--------------------|---------------------|--------|
|--------------------|---------------------|--------|
|--------------------|---------------------|--------|
|-----2~2-2----1-----|-----2~-2-2---1------|-----2~~|
|-----------3~-----3-|-----------3~----3-3-|--------|
|--0-----------------|--0------------------|--0-----|


violin arrangement......this enters after 2nd bar of the intro above

|----------------|----------------|----------------|-----------------|
|----------------|----------------|----------------|-----------------|
|-------0--------|-------0--------|-------0--------|-----------------|
|-----2---1------|-----2---1------|-----2---1------|---2~~-----5~~---|
|---2--------3---|---2--------3---|---2--------3---|-----------------|
|----------------|----------------|----------------|-----------------|


-------------------------------------------------------------------------


VErse 1


Em          C5        C
F15 scream cross the sky,
Em               C5     C
Lets its guided missile fly,
Em                C5        C
It ploughs into a market square,
Em                C5        C
One hundred roses take the air,
Em
I know you didn’t know,
C5               C
Know you didn’t know,
Em
Nobody told you so.


       Em     C5 C       Em     C5 C
|------------------|-----------------|
|------------------|-----------------|
|-2~-----0---------|-------0---------|
|------2----1------|-----2----1------|
|----2---------3---|---2--------3----|
|------------------|-----------------|

VERSE 2


       Em                 C5       C
Goona lay that child down at your feet,
Em                  C5          C
Watch her burn now, watch her scream,
Em                      C5      C
When she’s done there’s plenty more,
Em                    C5      C
Her brother’s waiting at the door,
Em
I know you didn’t know,
C5               C
Know you didn’t know,
Em
Nobody told you so.


     Em     C5 C       Em     C5 C
|------------------|-----------------|
|------------------|-----------------|
|-2~-----0---------|-------0---------|
|------2----1------|-----2----1------|
|----2---------3---|---2--------3----|
|------------------|-----------------|


CHorus 1 (see below for arrangement of violin)

Em         C
Wait here, wait here,
D                      G        G/F#
I thought I heard the ground a groanin’,
Em         C
Wait here, wait here,
D              G      G/#
I’m goin into town to warn ‘em,
Em         C            D
All I did find upon my way
                G        G/F#
Was hell’s own gates had opened,
Em             C                 D
For what it’s worth, I’m pretty sure,
               G           G/F#
That it’s for you they’re comin’.


INTERLUDE

   Em  C5  C    Em     C5     C    Em   C5   C   Em    C5   C
|--0~~~~~~~~~~~~~~~~~~~~~~~~~~~~~~~~~~~~~~~~~~~~~~~~~~~~~~~~~---|
|-------------|-------------------|-------------|---------------|
|-------------|-------------------|-------------|---------------|
|-------------|--(WITH VOLUME SWELLS)-----------|---------------|
|-------------|-------------------|-------------|---------------|
|-------------|-------------------|-------------|---------------|

VERSE 3


Em               C5     C
Big ol’ hat on a little man,
Em                      C5       C
Scrubbin’ blood stains from his hands,
Em                 C5       C
|------------------------------------|
|------12b---------------------------|
|-----12~b---------------------------| use whammy bar for slight bend down
|---14~~~b---------------------------|
|---14~~~b---------------------------|
|------------------------------------|
You gotta get ‘em, get ‘em fast,
Em                      C5      C
|--7b--------------------------------|
|-8~b--------------------------------|
|------------------------------------|  again use whammy
|------------------------------------|
|------------------------------------|
|------------------------------------|
Freedom truck is little low on gas,
 Em
|------------------------------------|
|------------------------------------|
|------------------------------------|
|------------------------------------|
|------------------------------------|
|-3-0--0-00--------------------------|
 I know you had to go,
C5               C
Know you had to go,
 Em
|------------------------------------|
|--3~b-------------------------------| not sure bout this part
|------------------------------------|
|------------------------------------|
|------------------------------------|
|------------------------------------|
 Daddy done told you so.

        Em     C5 C       Em     C5 C
|------------------|-----------------|
|------------------|-----------------|
|-2~-----0---------|-------0---------|
|------2----1------|-----2----1------|
|----2---------3---|---2--------3----|
|------------------|-----------------|

VERSE 4

Em                C5    C
Oil that chainsaw up again,
Em                              C5     C
Go on and fuck this earth up at both ends,
Em                     C5    C
|------------------------7b----------|
|------12b--------------8-b----------|
|-----12~b-------------9--b----------| use whammy bar
|---14~~~b---------------------------|
|---14~~~b---------------------------|
|------------------------------------|
It’s mother nature’s chesty cough,
Em                              C5      C
|------------------------7b--------------|
|------12b--------------8-b--------------|
|-----12~b-------------9--b--------------| use whammy bar
|---14~~~b-------------------------------|
|---14~~~b-------------------------------|
|----------------------------------------|
One o’ these days she’s gonna shake us off,
 Em
|------------------------------------|
|------------------------------------|
|------------------------------------|
|------------------------------------|
|------------------------------------|
|-3-0--0-00--------------------------|
 I know you didn’t know,
C5               C
Know you didn’t know,
 Em
|------------------------------------|
|-3b---------------------------------|
|------------------------------------|
|------------------------------------|
|------------------------------------|
|------------------------------------|
 Nobody told you so.

     Em     C5 C       Em     C5 C
|------------------|-----------------|
|------------------|-----------------|
|-2~-----0---------|-------0---------|
|------2----1------|-----2----1------|
|----2---------3---|---2--------3----|
|------------------|-----------------|

CHORUS 2

Em         C
Wait here, wait here,
D                      G        G/F#
I thought I heard the ground a groanin’,
Em         C
Wait here, wait here,
D              G      G/#
I’m goin into town to warn ‘em,
Em         C            D
All I did find upon my way
                G        G/F#
Was hell’s own gates had opened,
Em             C                 D
For what it’s worth, I’m pretty sure,
               G           G/F#
That it’s for you they’re comin’.....

*repeat chorus (havin a clue what mick says exactly)
----------------------------------------------------------------------------

Violin Part of chorus outro-
    Em           C                D            G     G/F#
|------------------------------|-----------------------------|
|---12----12-----13----13------|--10----10-----12-10---------|
|------12----12-----14----14---|-----11----11--------12-11---|
|------------------------------|-----------------------------|
|------------------------------|-----------------------------|
|------------------------------|-----------------------------|

    Em           C                D            G     G/F#
|------------------------------|-----------------------------|
|---12----12-----13----13------|--10----10-----12-10---------|
|------12----12-----14----14---|-----11----11--------12-11---|
|------------------------------|-----------------------------|
|------------------------------|-----------------------------|
|------------------------------|-----------------------------|

Lead guitar part of chorus outro
starts after end of lyrics above
    Em           C                D            G     G/F#
|------------------------------|-----------------------------|
|---12.(trem)----13------------|--10br--10-----12-10---------|
|------------------------------|-----11----11--------12-11---|
|------------------------------|-----------------------------|
|------------------------------|-----------------------------|
|------------------------------|-----------------------------|


SOLO+ OUTRO;

Em  C5  C (REPEAT several times)
finish on Em


solo
|-------------------------------------------------------------|
|------------------------------------------16b--16b-12-repeat-| fade out
|------------------5~~~~------------/16trem-------------------|
|----------5--4--5----------5/7-------------------------------|
|-7---6-----------------7--------7----------------------------|
|-------7-----------------------------------------------------|


There is an acoustic outro il put when i get it out

----------------------------------------------------------------------------|
----------------------------------------------------------------------------|

ARRANGEMENT OF WHAT THE VIOLIN PLAYS DURING THE CHORUS 1
(NEED HEAVY SUSTAIN TO MAKE IT FIT like in the album version)
   Em     C          D        G G/F#  Em     C         D        G G/F#
|--------------|------------------|--------------|------------------|
|--------------|------------------|--------------|------------------|
|---4~----5~---|-----2~---4~--2/0-|---4~----5~---|-----2~---4~--2/0-|
|--------------|------------------|--------------|------------------|
|--------------|------------------|--------------|------------------|
|--------------|------------------|--------------|------------------|

   Em     C          D        G G/F#   Em     C        D      G G/F#
|--7~-----8~---|-----5~---7~---5-3~-|---7~----8~---|---5~--7~--5-3/0-|
|--------------|--------------------|--------------|-----------------|
|--------------|--------------------|--------------|-----------------|
|--------------|--------------------|--------------|-----------------|
|--------------|--------------------|--------------|-----------------|
|--------------|--------------------|--------------|-----------------|

the same arrangement is used for 2nd chorus

----------------------------------------------------------------------------
arrangement of lead guitar for chorus 2

   Em     C          D        G G/F#
|--------------|-----10~~------------|
|--12~---------|-----10~~-----12-----|
|--12~----12~--|-----11~~-----12--11-|
|--14~----10~--|--------------12--12-|
|--------------|---------------------|
|--------------|---------------------|

            
            
Suggest correction
Creating personal tab
Creating personal tab
You can edit any tab online and save it as your Personal.

You can edit, replace or remove any tab part or add personal notes – all changes will be seen only by you.

Personal tabs can be accessed anytime from any device, even offline.
Learn more »
Give kudos to tab author, rate the tab!
1 2 3 4 5
comments
print report bad tab
1 comment total.
0 reply
foxymophandlema 72 Jul 21, 2009 07:14 AM

violin part for chorus at d end............sorry i made a mistake above.

F#m D E A
|------------------------------|-----------------------------|
|---14----14-----15----15------|--12----12-----14-12---------|
|------14----14-----16----16---|-----13----13--------14-13---|
|------------------------------|-----------------------------|
|------------------------------|-----------------------------|
|------------------------------|-----------------------------|

F#m D E A
|------------------------------|-----------------------------|
|---14----14-----15----15------|--12----12-----14-12---------|
|------14----14-----16----16---|-----13----13--------14-13---|
|------------------------------|-----------------------------|
|------------------------------|-----------------------------|
|------------------------------|-----------------------------|

guest
You may want to rate the tab now too:
select rating
Wanna post a correction for this tab? Suggest correction