Oops, an error
Loading. Please wait.

My Favorite Things bass

28 views 1 this week
no commentswrite comment
1 2 3 4 5
3 more votes to show rating
add to favorites
×
Save as Personal and add changes to this tab that will be seen only by you. Learn more ›
×
You can save this tab as Personal to edit and correct it or add notes. All changes will be seen only by you. Learn more »
launch autoscroll
font size
0
reset
guitar tuner
edit
Autoscroll
slow
fast
+/-
esc
set tempo
stop
Author
Difficulty
Tabbed by: 6METAL6BASSIST6
E-mail: petergriffinav@gmail.com

Tuning: EADG

G|------------------------------------------------------------------------------------------------|
D|------------10----------------------------------5-----------------------5-----------------------|
A|------------------------6-----------8-----------------------5-----------------------5-----------|
E|3-----------------------------------------------------------------------------------------------|

0:08

G|------------------------------------------------------------------------------------------------|
D|5-----------------------5-------------------5---------------8-----------------------8-----------|
A|------------5-----------------------5-----------6-----------------------6-----------------------|
E|------------------------------------------------------------------------------------------------|

G|------------------------------------------------------------------------------------------------|
D|10----------------------8-----------------------8-----------------------7-----------------------|
A|------------8-----------------------6-----------------------6-----------------------5-----------|
E|------------------------------------------------------------------------------------------------|

G|------------------------------------------------|
D|5-----------------------5-----------------------|
A|------------5-----------------------5-----------|
E|------------------------------------------------|

0:30

G|------------------------------------------------------------------------------------------------|
D|5-----------------------5-----------------------------------8-----------------------8-----------|
A|------------5-----------------------5-------5---6-----------------------6-----------------------|
E|----------------------------------------------------------------------------------------11--10--|

G|------------------------------------------------------------------------------------------------|
D|10----------------------8-----------------------8-----------------------7-----------------------|
A|------------8-----------------------6-----------------------6-----------------------5-----------|
E|------------------------------------------------------------------------------------------------|

G|------------------------------------------------|
D|5-----------5-----------5-----------5-----------|
A|------------------------------------------------|
E|------------------------------------------------|

0:51

G|------------------------------------------------------------------------------------------------|
D|5-----------------------5-----------5---7---9---10----------------------10----------------------|
A|------------5-----------------------------------------------10----------------------10----------|
E|------------------------------------------------------------------------------------------------|

G|------------------------------------------------------------------------------------------------|
D|10----------------------8-----------------------8-----------------------7-----------------------|
A|------------8-----------------------6-----------------------6-----------------------5-----------|
E|------------------------------------------------------------------------------------------------|

1:08

G|------------------------------------------------------------------------------------------------|
D|----5---5---5---------------7---7-------------------5---5---5-----------------------8-----------|
A|------------------------------------5-------------------------------6---6-----------------------|
E|----------------------------------------------------------------------------------------11--10--|

G|------------------------------------------------------------------------------------------------|
D|10----------10----------10----------10----------8-------8---------------------------------------|
A|----------------------------------------------------6-------6-----------8-----------------------|
E|------------------------------------------------------------------------------------------------|

G|------------------------------------------------|
D|8-------------------8---7-----------------------|
A|------------8-----------------------5-----------|
E|------------------------------------------------|

1:29

G|------------------------------------------------------------------------------------------------|
D|5-----------------------5---------------5---3---------------8-----------------------8-----------|
A|------------5-----------------------5-----------6-----------------------6-----------------------|
E|----------------------------------------------------------------------------------------11--10--|

G|------------------------------------------------------------------------------------------------|
D|10----------------------8-----------------------8-----------------------7-----------------------|
A|------------8-----------------------6-----------------------6-----------------------5-----------|
E|------------------------------------------------------------------------------------------------|

G|------------------------------------------------|
D|5-----------------------5-----------------------|
A|------------5-----------------------5-----------|
E|------------------------------------------------|

1:50

G|------------------------------------------------------------------------------------------------|
D|5-----------------------5-------------------5---------------8-----------------------8-----------|
A|------------5-----------------------5-----------6-----------------------6-----------------------|
E|----------------------------------------------------------------------------------------11--10--|

G|------------------------------------------------------------------------------------------------|
D|10----------------------8-----------------------8-----------------------7-----------------------|
A|------------8-----------------------6-----------------------6-----------------------5-----------|
E|------------------------------------------------------------------------------------------------|

G|------------------------------------------------|
D|5-----------5-----------5-----------5-----------|
A|------------------------------------------------|
E|------------------------------------------------|

2:11

G|------------------------------------------------------------------------------------------------|
D|5-----------------------5-------------------5---10----------------------10----------------------|
A|------------5-----------------------5-----------------------10----------------------10----------|
E|------------------------------------------------------------------------------------------------|

G|------------------------------------------------------------------------------------------------|
D|10----------------------8-----------------------8-----------------------7-----------------------|
A|------------8-----------------------6-----------------------6-----------------------5-----------|
E|------------------------------------------------------------------------------------------------|

2:28

G|------------------------------------------------------------------------------------------------|
D|----------------5-------7-----------------------5-----------------------------------8-----------|
A|--------------------5-------------------5---5---------------------------6-----------------------|
E|----------------------------------------------------------------------------------------11--10--|

G|------------------------------------------------------------------------------------------------|
D|10----------10----------10----------10----------8-------8---------------------------------------|
A|----------------------------------------------------6-------6-----------8-----------------------|
E|------------------------------------------------------------------------------------------------|

G|------------------------------------------------|
D|8-------------------8---7-----------------------|
A|------------8-----------------------5-----------|
E|------------------------------------------------|

2:50 Until fadeout.

G|------------------------------------------------------------------------------------------------|
D|5-----------------------5-----------------------5-----------------------5-----------------------|
A|------------5-----------------------5-----------------------5-----------------------5-----------|
E|------------------------------------------------------------------------------------------------|

            
            
Suggest correction
Creating personal tab
Creating personal tab
You can edit any tab online and save it as your Personal.

You can edit, replace or remove any tab part or add personal notes – all changes will be seen only by you.

Personal tabs can be accessed anytime from any device, even offline.
Learn more »
Give kudos to tab author, rate the tab!
1 2 3 4 5
comments
print report bad tab
guest
You may want to rate the tab now too:
select rating
Wanna post a correction for this tab? Suggest correction