Oops, an error
Loading. Please wait.

Beds Are Burning bass

version 5
version 5
1,266 views 12 this week
no commentswrite comment
1 2 3 4 5
3 more votes to show rating
add to favorites
×
Save as Personal and add changes to this tab that will be seen only by you. Learn more ›
×
You can save this tab as Personal to edit and correct it or add notes. All changes will be seen only by you. Learn more »
launch autoscroll
font size
0
reset
guitar tuner
backing track
0:00
0:00
edit
Autoscroll
slow
fast
+/-
esc
set tempo
stop
Author
BEDS ARE BURNING

Hirst/Moginie/Garrett
Album : Diesel and Dust
Bass : Peter Gifford

INTRO/HORN BLAST:
G |-----------------|
D |-----------------|
A |-----------------|
E |-0---3---5-------|

VERSE:
G |-----------------------------------|
D |*---------------------------------*|
A |*---------------------------------*| x12
E |--0-0-6-7-0-0-6-7-0-0-4-5-0-0-3-2--|

LEADING INTO CHORUS:
G |---------------------------------|-----------------|
D |---------------------------------|-----------------|
A |---------------------------------|-----------------|
E |-2-2-2-2-2-2-2-2-2-2-2-2-2-2-2-2-|-0---3---5-------|

CHORUS:
How can we dance when our earth is turning
G |---------------------------------|---------------------------------|
D |---------------------------------|---------------------------------|
A |-----------------3-3-3-3-3-3-3-3-|---------------------------------|
E |-0-0-0-0-0-0-0-0-----------------|-3-3-3-3-3-3-3-3-3-3-3-3-3-3-3-3-|

How do we sleep while our beds are burning
G |---------------------------------|---------------------------------|
D |---------------------------------|---------------------------------|
A |-----------------3-3-3-3-3-3-3-3-|-5-5-5-5-5-5-5-5-5-5-5-5-6-6-6-6-|
E |-0-0-0-0-0-0-0-0-----------------|---------------------------------|

G |---------------------------------|---------------------------------|
D |---------------------------------|---------------------------------|
A |-----------------3-3-3-3-3-3-3-3-|---------------------------------|
E |-0-0-0-0-0-0-0-0-----------------|-3-3-3-3-3-3-3-3-3-3-3-3-3-3-3-3-|

G |---------------------------------|---------------------------------|
D |---------------------------------|---------------------------------|
A |-----------------3-3-3-3-3-3-3-3-|-5-5-5-5-5-5-5-5-5-5-5-5-5-5-5-5-|
E |-0-0-0-0-0-0-0-0-----------------|---------------------------------|

The time has come to say fair's fair
G |---------------------------------|---------------------------------|
D |---------------------------------|---------------------------------|
A |-7-7-7-7-7-7-7-7-3-3-3-3-3-3-3-3-|-----------------5-5-5-5-5-5-5-5-|
E |---------------------------------|-3-3-3-3-3-3-3-3-----------------|

G |-----------------|
D |-----------------|
A |-5-5-5-5-5-5-5---|
E |-----------------|

VERSE:
G |-----------------------------------|
D |*---------------------------------*|
A |*---------------------------------*| x12
E |--0-0-6-7-0-0-6-7-0-0-4-5-0-0-3-2--|

................................Let's give it back
G |---------------------------------|-----------------|-----------------|
D |---------------------------------|-----------------|-----------------|
A |---------------------------------|-----------------|-----------------|
E |-0-0-6-7-0-0-6-7-0-0-4-5-0-0-3---|-----------------|-0---3---5-------|

CHORUS:
How can we dance when our earth is turning
G |---------------------------------|---------------------------------|
D |---------------------------------|---------------------------------|
A |-----------------3-3-3-3-3-3-3-3-|---------------------------------|
E |-0-0-0-0-0-0-0-0-----------------|-3-3-3-3-3-3-3-3-3-3-3-3-3-3-3-3-|

How do we sleep while our beds are burning
G |---------------------------------|---------------------------------|
D |---------------------------------|---------------------------------|
A |-----------------3-3-3-3-3-3-3-3-|-5-5-5-5-5-5-5-5-5-5-5-5-6-6-6-6-|
E |-0-0-0-0-0-0-0-0-----------------|---------------------------------|

** Play the next part twice **

G |---------------------------------|---------------------------------|
D |---------------------------------|---------------------------------|
A |-----------------3-3-3-3-3-3-3-3-|---------------------------------|
E |-0-0-0-0-0-0-0-0-----------------|-3-3-3-3-3-3-3-3-3-3-3-3-3-3-3-3-|

G |---------------------------------|---------------------------------|
D |---------------------------------|---------------------------------|
A |-----------------3-3-3-3-3-3-3-3-|-5-5-5-5-5-5-5-5-5-5-5-5-5-5-5-5-|
E |-0-0-0-0-0-0-0-0-----------------|---------------------------------|

G |----------------------------------|----------------------------------|
D |*---------------------------------|---------------------------------*|
A |*-7-7-7-7-7-7-7-7-3-3-3-3-3-3-3-3-|-----------------5-5-5-5-5-5-5-5-*|
E |----------------------------------|-3-3-3-3-3-3-3-3------------------|

G |-----------------|
D |-----------------|
A |-5-5-5-5-5-5-5---|
E |-----------------|

OUTRO/HORN BLAST:
G |-----------------|-----------------|-----------------|
D |-----------------|-----------------|-----------------|
A |-----------------|-----------------|-----------------|
E |-0---3---5-------|-----------------|-0---3---5-------|

Transcribed by Brian Camp
E-mail: cambrian@vianet.net.au

            
            
Suggest correction
Creating personal tab
Creating personal tab
You can edit any tab online and save it as your Personal.

You can edit, replace or remove any tab part or add personal notes – all changes will be seen only by you.

Personal tabs can be accessed anytime from any device, even offline.
Learn more »
Give kudos to tab author, rate the tab!
1 2 3 4 5
comments
print report bad tab
guest
You may want to rate the tab now too:
select rating
Wanna post a correction for this tab? Suggest correction