Oops, an error
Loading. Please wait.

Beds Are Burning bass

version 3
version 3
3,074 views 1 this week
no commentswrite comment
1 2 3 4 5
2 more votes to show rating
add to favorites
×
Save as Personal and add changes to this tab that will be seen only by you. Learn more ›
×
You can save this tab as Personal to edit and correct it or add notes. All changes will be seen only by you. Learn more »
launch autoscroll
font size
0
reset
guitar tuner
backing track
0:00
0:00
edit
Autoscroll
slow
fast
+/-
esc
set tempo
stop
Author
Difficulty
-------------------------------------------------------------------------------
			     BEDS ARE BURNING - Midnight Oil
-------------------------------------------------------------------------------

Tabbed By : Cal
e-mail: sheepinthetrees@hotmail.com

Tuning: Standard

Intro/Horn Riff
G|-------------|
D|-------------|
A|-------------|
E|----0-3-5----|


Verse Riff 1 x12
G|:-----------------------------------------------:|   
D|:-----------------------------------------------:|
A|:-----------------------------------------------:|
E|:----0-0-5-7---0-0-5-7----0-0-3-5----0-0-3-2----:|

Verse Riff 2 x1
G|---------------------------------------|
D|---------------------------------------|
A|---------------------------------------|
E|----2-2-2-2-2-2-2-2-2-2-2-2-2-2-2-2----|


Pre-Chorus x1
G|-------------|
D|-------------|
A|-------------|
E|----0-3-5----|


Chorus Riff 1 x1
G|--------------------------------------------------------------------------|
D|--------------------------------------------------------------------------|
A|----------------------3-3-3-3-3-3-3-3-------------------------------------|
E|-----0-0-0-0-0-0-0-0------------------3-3-3-3-3-3-3-3-3-3-3-3-3-3-3-3-----|

G|--------------------------------------------------------------------------|
D|--------------------------------------------------------------------------|
A|----------------------3-3-3-3-3-3-3-3-5-5-5-5-5-5-5-5-5-5-5-5-6-6-6-6-----|
E|-----0-0-0-0-0-0-0-0------------------------------------------------------|

Chorus Riff 2 x1
G|--------------------------------------------------------------------------|
D|--------------------------------------------------------------------------|
A|----------------------3-3-3-3-3-3-3-3-------------------------------------|
E|-----0-0-0-0-0-0-0-0------------------3-3-3-3-3-3-3-3-3-3-3-3-3-3-3-3-----|

G|--------------------------------------------------------------------------|
D|--------------------------------------------------------------------------|
A|----------------------3-3-3-3-3-3-3-3-5-5-5-5-5-5-5-5-5-5-5-5-5-5-5-5-----|
E|-----0-0-0-0-0-0-0-0------------------------------------------------------|

G|--------------------------------------------------------------------------|
D|--------------------------------------------------------------------------|
A|----------------------3-3-3-3-3-3-3-3-------------------------------------|
E|-----0-0-0-0-0-0-0-0------------------3-3-3-3-3-3-3-3-3-3-3-3-3-3-3-3-----|

Chorus Riff 3 x1
G|--------------------------------------------------------------------------------------|
D|--------------------------------------------------------------------------------------|
A|---------------------3-3-3-3-3-3-3-3-5-5-5-5-5-5-5-5-5-5-5-5-5-5-5-5-5-5-5-5-5-5-5-5-5|
E|-----0-0-0-0-0-0-0-0------------------------------------------------------------------|


Verse Riff 1 x13
G|:-----------------------------------------------:|   
D|:-----------------------------------------------:|
A|:-----------------------------------------------:|
E|:----0-0-5-7---0-0-5-7----0-0-3-5----0-0-3-2----:|

"Let's Give it Back!"


Pre-Chorus x1
G|-------------|
D|-------------|
A|-------------|
E|----0-3-5----|


Chorus Riff 1 x1
G|--------------------------------------------------------------------------|
D|--------------------------------------------------------------------------|
A|----------------------3-3-3-3-3-3-3-3-------------------------------------|
E|-----0-0-0-0-0-0-0-0------------------3-3-3-3-3-3-3-3-3-3-3-3-3-3-3-3-----|


G|--------------------------------------------------------------------------|
D|--------------------------------------------------------------------------|
A|----------------------3-3-3-3-3-3-3-3-5-5-5-5-5-5-5-5-5-5-5-5-6-6-6-6-----|
E|-----0-0-0-0-0-0-0-0------------------------------------------------------|

Chorus Riff 2 x1
G|--------------------------------------------------------------------------|
D|--------------------------------------------------------------------------|
A|----------------------3-3-3-3-3-3-3-3-------------------------------------|
E|-----0-0-0-0-0-0-0-0------------------3-3-3-3-3-3-3-3-3-3-3-3-3-3-3-3-----|

G|--------------------------------------------------------------------------|
D|--------------------------------------------------------------------------|
A|----------------------3-3-3-3-3-3-3-3-5-5-5-5-5-5-5-5-5-5-5-5-5-5-5-5-----|
E|-----0-0-0-0-0-0-0-0------------------------------------------------------|

Chorus Riff 4 x1
G|--------------------------------------------------------------------------|
D|--------------------------------------------------------------------------|
A|----------------------3-3-3-3-3-3-3-3-------------------------------------|
E|-----0-0-0-0-0-0-0-0------------------3-3-3-3-3-3-3-3-3-3-3-3-3-3-3-3-----|


G|--------------------------------------------------------------------------------------|
D|--------------------------------------------------------------------------------------|
A|---------------------3-3-3-3-3-3-3-3-5-5-5-5-5-5-5-5-5-5-5-5-5-5-5-5-5-5-5-5-5-5-5-5-5|
E|-----0-0-0-0-0-0-0-0------------------------------------------------------------------|

Chorus Riff 2 x1
G|--------------------------------------------------------------------------|
D|--------------------------------------------------------------------------|
A|----------------------3-3-3-3-3-3-3-3-------------------------------------|
E|-----0-0-0-0-0-0-0-0------------------3-3-3-3-3-3-3-3-3-3-3-3-3-3-3-3-----|

G|--------------------------------------------------------------------------|
D|--------------------------------------------------------------------------|
A|----------------------3-3-3-3-3-3-3-3-5-5-5-5-5-5-5-5-5-5-5-5-5-5-5-5-----|
E|-----0-0-0-0-0-0-0-0------------------------------------------------------|

Outro Riff 1 x1
G|--------------------------------------------------------------------------|
D|--------------------------------------------------------------------------|
A|-----7-7-7-7-7-7-7-7--3-3-3-3-3-3-3-3-------------------5-5-5-5-5-5-5-5---|
E|---------------------------------------3-3-3-3-3-3-3-3--------------------|

Outro Riff 2 x1
G|-------------------------------------------------------------------------------------|
D|-------------------------------------------------------------------------------------|
A|-----7-7-7-7-7-7-7-7--3-3-3-3-3-3-3-3-------------------5-5-5-5-5-5-5-5-5-55-5-5-5-5\|
E|---------------------------------------3-3-3-3-3-3-3-3-------------------------------|

Horn Riff x2
G|-------------|
D|-------------|
A|-------------|
E|----0-3-5----|

Done! I think It's Right, Sounds Good to me anyway.
Cheers Guys! Rate or comment to tell me what ya think!

| /  slide up
| \  slide down
| h  hammer-on
| p  pull-off
| ~  vibrato
| +  harmonic
| x  Mute note
============================================================================

            
            
Suggest correction
Creating personal tab
Creating personal tab
You can edit any tab online and save it as your Personal.

You can edit, replace or remove any tab part or add personal notes – all changes will be seen only by you.

Personal tabs can be accessed anytime from any device, even offline.
Learn more »
Give kudos to tab author, rate the tab!
1 2 3 4 5
comments
print report bad tab
guest
You may want to rate the tab now too:
select rating
Wanna post a correction for this tab? Suggest correction