Oops, an error
Loading. Please wait.

Falling Away tab

version 1
version 1

Whole song

Interactive

5,270 views 1 this week
5 commentsread comments
1 2 3 4 5
x 4
add to favorites
×
Save as Personal and add changes to this tab that will be seen only by you. Learn more ›
×
You can save this tab as Personal to edit and correct it or add notes. All changes will be seen only by you. Learn more »
launch autoscroll
font size
0
reset
how to read this tab
guitar tuner
edit
Autoscroll
slow
fast
+/-
esc
set tempo
stop
Title		: Falling away
Artist		: Miguel Escueta
Album		: I Am M.E

Ear Tabber	: Walter Michael De la Cruz
Email add 1	: Walterfdelacruz@yahoo.com
Email add 2	: Michaelfdelacruz@yahoo.com

School		: Saint Louis University BAguio City
DAte of tab	: June 10,2007
Course		: BS Electronics and Communication Engineering


This is the first single from Miguel Escueta.
I first heard this last May 2007 From Magic 89.9
Asteeg tong song na to. Sana magustuhan nyo yong tab ko.
To be able to play this, dapat mahahaba mga daliri nyo para
maabot nyo yung mga plucking. Im very sure of this tab kase 
napanood ko na ung Video nito. For Comments, 
Lagay lang kayo ng comment dito sa Ultimate Guitar. Rock out
This song goes to Karla Pandacan. i love You.


---------------
STANDARD TUNING|
---------------


------
Intro | 
------  


          B                 E
e|------------------|---------------------|
B|------------------|---------------------|
G|---4-----6--------|---11-----11---------|
D|-----4-----4---4--|------9------9---9---| 
A|-2-----2-----2----|-7------7------7-----|
E|------------------|---------------------|

          G#m                F#
e|------------------|---------------------|
B|------------------|---------------------|
G|---4------4-------|---4------6----------|
D|-----4------4---4-|-----4------4--4-----|  
A|------------------|---------------------|
E|-4------4-----4---|-2------2-----2------|


          B                 E
e|------------------|---------------------|
B|------------------|---------------------|
G|---4-----6--------|---11-----11---------|
D|-----4-----4---4--|------9------9---9---| 
A|-2-----2-----2----|-7------7------7-----|
E|------------------|---------------------|

          G#m                F#
e|------------------|---------------------|
B|------------------|---------------------|
G|---4------4-------|---4------6----------|
D|-----4------4---4-|-----4------4--4-----|  
A|------------------|---------------------|
E|-4------4-----4---|-2------2-----2------|



-------
Verse 1| Paulit ulit lang etong part na to.
-------


          B                 E
e|------------------|---------------------|
B|------------------|---------------------|
G|---4-----6--------|---11-----11---------|
D|-----4-----4---4--|------9------9---9---| 
A|-2-----2-----2----|-7------7------7-----|
E|------------------|---------------------|

          G#m                F#
e|------------------|---------------------|
B|------------------|---------------------|
G|---4------4-------|---4------6----------|
D|-----4------4---4-|-----4------4--4-----|  
A|------------------|---------------------|
E|-4------4-----4---|-2------2-----2------|


Here we go, it’s crashing down around
Through the speed as we try to define
Doubts re-surface, waves you can’t withstand
We find ourselves here once again



-------
Refrain| Strum nyo na dito sa part na to
-------

* strum muna ng G#m bago kanta


     G#m            F#        
e|-4-4--4-4--|---2-2--2-2--|
B|-4-4--4-4--|---2-2--2-2--|
G|-4-4--4-4--|---3-3--3-3--|
D|-6-6--6-6--|---4-4--4-4--|  
A|-6-6--6-6--|---4-4--4-4--|
E|-4-4--4-4--|---2-2--2-2--|

         We're falling away...


       G#m          F#
e|-4-4--4-4--|---2-2--2-2--|
B|-4-4--4-4--|---2-2--2-2--|
G|-4-4--4-4--|---3-3--3-3--|
D|-6-6--6-6--|---4-4--4-4--|  
A|-6-6--6-6--|---4-4--4-4--|
E|-4-4--4-4--|---2-2--2-2--|

         We're falling away...

      G#m            F#          E
e|-4-4--4-4--|---2-2--2-2--|-0-0--0-0-0-0-|
B|-4-4--4-4--|---2-2--2-2--|-0-0--0-0-0-0-|
G|-4-4--4-4--|---3-3--3-3--|-1-1--1-1-1-1-|
D|-6-6--6-6--|---4-4--4-4--|-2-2--2-2-2-2-|
A|-6-6--6-6--|---4-4--4-4--|-2-2--2-2-2-2-|
E|-4-4--4-4--|---2-2--2-2--|-0-0--0-0-0-0-|

         We're falling away from this


-------
Chorus | Walter Michael De la Cruz Rockz
-------

* Strum dito forward and backward strum lang.
  Puro broken chords gamitin nyo


   B         B/Bb            G#m          F#
e|-----|-------------|--------------|------------|
B|-----|-------------|--------------|------------|
G|-4-4-|----4-4-4----|-------4--4---|---4-4-4----|
D|-4-4-|----4-4-4----|-------4--4---|---4-4-4----|  
A|-2-2-|----1-1-1----|--------------|------------|
E|-----|-------------|-------4--4---|---2-2-2----|
  Wasn’t it enough to let you feel the sun?

   B         B/Bb            G#m          F#
e|-----|-------------|--------------|------------|
B|-----|-------------|--------------|------------|
G|-4-4-|----4-4-4----|-------4--4---|---4-4-4----|
D|-4-4-|----4-4-4----|-------4--4---|---4-4-4----|  
A|-2-2-|----1-1-1----|--------------|------------|
E|-----|-------------|-------4--4---|---2-2-2----|
   Am      I not      worth every        fall?

   B         B/Bb            G#m          F#
e|-----|-------------|--------------|------------|
B|-----|-------------|--------------|------------|
G|-4-4-|----4-4-4----|-------4--4---|---4-4-4----|
D|-4-4-|----4-4-4----|-------4--4---|---4-4-4----|  
A|-2-2-|----1-1-1----|--------------|------------|
E|-----|-------------|-------4--4---|---2-2-2----|   
 We’ve gone too deep to just let this   fly

   B         B/Bb            G#m          F#
e|-----|-------------|--------------|------------|
B|-----|-------------|--------------|------------|
G|-4-4-|----4-4-4----|-------4--4---|---4-4-4----|
D|-4-4-|----4-4-4----|-------4--4---|---4-4-4----|  
A|-2-2-|----1-1-1----|--------------|------------|
E|-----|-------------|-------4--4---|---2-2-2----|
So please  hold on and    let me       save us

   B         B/Bb            G#m          F#
e|-----|-------------|--------------|------------|
B|-----|-------------|--------------|------------|
G|-4-4-|----4-4-4----|-------4--4---|---4-4-4----|
D|-4-4-|----4-4-4----|-------4--4---|---4-4-4----|  
A|-2-2-|----1-1-1----|--------------|------------|
E|-----|-------------|-------4--4---|---2-2-2----|
   Please hold on and       let me     save us



Interlude:

          B                 E
e|------------------|---------------------|
B|------------------|---------------------|
G|---4-----6--------|---11-----11---------|
D|-----4-----4---4--|------9------9---9---| 
A|-2-----2-----2----|-7------7------7-----|
E|------------------|---------------------|

          G#m                F#
e|------------------|---------------------|
B|------------------|---------------------|
G|---4------4-------|---4------6----------|
D|-----4------4---4-|-----4------4--4-----|  
A|------------------|---------------------|
E|-4------4-----4---|-2------2-----2------|


-------
Verse 2| Walter Michael De la Cruz Rockz
-------

          B                 E
e|------------------|---------------------|
B|------------------|---------------------|
G|---4-----6--------|---11-----11---------|
D|-----4-----4---4--|------9------9---9---| 
A|-2-----2-----2----|-7------7------7-----|
E|------------------|---------------------|

          G#m                F#
e|------------------|---------------------|
B|------------------|---------------------|
G|---4------4-------|---4------6----------|
D|-----4------4---4-|-----4------4--4-----|  
A|------------------|---------------------|
E|-4------4-----4---|-2------2-----2------|


How long must I weather this storm?
I’m drowning into your condescending eyes
Please bend for me, even just a bit
Can’t you see that I am already broken?

-------
Refrain| Strum nyo na dito sa part na to
-------

* strum muna ng G#m bago kanta


     G#m            F#        
e|-4-4--4-4--|---2-2--2-2--|
B|-4-4--4-4--|---2-2--2-2--|
G|-4-4--4-4--|---3-3--3-3--|
D|-6-6--6-6--|---4-4--4-4--|  
A|-6-6--6-6--|---4-4--4-4--|
E|-4-4--4-4--|---2-2--2-2--|

         We're falling away...


       G#m          F#
e|-4-4--4-4--|---2-2--2-2--|
B|-4-4--4-4--|---2-2--2-2--|
G|-4-4--4-4--|---3-3--3-3--|
D|-6-6--6-6--|---4-4--4-4--|  
A|-6-6--6-6--|---4-4--4-4--|
E|-4-4--4-4--|---2-2--2-2--|

         We're falling away...

      G#m            F#          E
e|-4-4--4-4--|---2-2--2-2--|-0-0--0-0-0-0-|
B|-4-4--4-4--|---2-2--2-2--|-0-0--0-0-0-0-|
G|-4-4--4-4--|---3-3--3-3--|-1-1--1-1-1-1-|
D|-6-6--6-6--|---4-4--4-4--|-2-2--2-2-2-2-|
A|-6-6--6-6--|---4-4--4-4--|-2-2--2-2-2-2-|
E|-4-4--4-4--|---2-2--2-2--|-0-0--0-0-0-0-|

         We're falling away from this


-------
Chorus | Walter Michael De la Cruz Rockz
-------

* Strum dito forward and backward strum lang.
  Puro broken chords gamitin nyo


   B         B/Bb            G#m          F#
e|-----|-------------|--------------|------------|
B|-----|-------------|--------------|------------|
G|-4-4-|----4-4-4----|-------4--4---|---4-4-4----|
D|-4-4-|----4-4-4----|-------4--4---|---4-4-4----|  
A|-2-2-|----1-1-1----|--------------|------------|
E|-----|-------------|-------4--4---|---2-2-2----|
  Wasn’t it enough to let you feel the sun?

   B         B/Bb            G#m          F#
e|-----|-------------|--------------|------------|
B|-----|-------------|--------------|------------|
G|-4-4-|----4-4-4----|-------4--4---|---4-4-4----|
D|-4-4-|----4-4-4----|-------4--4---|---4-4-4----|  
A|-2-2-|----1-1-1----|--------------|------------|
E|-----|-------------|-------4--4---|---2-2-2----|
   Am      I not      worth every        fall?

   B         B/Bb            G#m          F#
e|-----|-------------|--------------|------------|
B|-----|-------------|--------------|------------|
G|-4-4-|----4-4-4----|-------4--4---|---4-4-4----|
D|-4-4-|----4-4-4----|-------4--4---|---4-4-4----|  
A|-2-2-|----1-1-1----|--------------|------------|
E|-----|-------------|-------4--4---|---2-2-2----|   
 We’ve gone too deep to just let this   fly

   B         B/Bb            G#m          F#
e|-----|-------------|--------------|------------|
B|-----|-------------|--------------|------------|
G|-4-4-|----4-4-4----|-------4--4---|---4-4-4----|
D|-4-4-|----4-4-4----|-------4--4---|---4-4-4----|  
A|-2-2-|----1-1-1----|--------------|------------|
E|-----|-------------|-------4--4---|---2-2-2----|
So please  hold on and    let me       save us

   B         B/Bb            G#m          F#
e|-----|-------------|--------------|------------|
B|-----|-------------|--------------|------------|
G|-4-4-|----4-4-4----|-------4--4---|---4-4-4----|
D|-4-4-|----4-4-4----|-------4--4---|---4-4-4----|  
A|-2-2-|----1-1-1----|--------------|------------|
E|-----|-------------|-------4--4---|---2-2-2----|
   Please hold on and       let me     save us



Bridge: (sensya na kung may kunti sabit sa Bass.hehe)

BASS ung ginamit dito.

e|------------------------------|
B|------------------------------|
G|------------------------------|
D|------------------------------|  
A|-4-4--------------------------|
E|------4-4--5-5-5-5--2-2/5-4-2-|

e|------------------------------|
B|------------------------------|
G|------------------------------|
D|------------------------------|  
A|-4-4--------------------------|
E|------4-4--5-5-5-5--2--2-2-2--|



   
Tig isang strum lang ung C#m
Pero sa last part bago mag refrain C#m-A

e|-4--------|
B|-5--------|
G|-6--------|
D|-6--------| 
A|-4--------|
E|----------|


Oh… can’t you feel it?
We are falling into the abyss
That we just can’t comprehend
Oh… don’t you know that
Some wounds just never heal



-------
Chorus | Walter Michael De la Cruz Rockz
-------

* Guitar only


   B         B/Bb            G#m          F#
e|-----|-------------|--------------|------------|
B|-----|-------------|--------------|------------|
G|-4-4-|----4-4-4----|-------4--4---|---4-4-4----|
D|-4-4-|----4-4-4----|-------4--4---|---4-4-4----|  
A|-2-2-|----1-1-1----|--------------|------------|
E|-----|-------------|-------4--4---|---2-2-2----|
  Wasn’t it enough to let you feel the sun?

   B         B/Bb            G#m          F#
e|-----|-------------|--------------|------------|
B|-----|-------------|--------------|------------|
G|-4-4-|----4-4-4----|-------4--4---|---4-4-4----|
D|-4-4-|----4-4-4----|-------4--4---|---4-4-4----|  
A|-2-2-|----1-1-1----|--------------|------------|
E|-----|-------------|-------4--4---|---2-2-2----|
   Am      I not      worth every        fall?

   B         B/Bb            G#m          F#
e|-----|-------------|--------------|------------|
B|-----|-------------|--------------|------------|
G|-4-4-|----4-4-4----|-------4--4---|---4-4-4----|
D|-4-4-|----4-4-4----|-------4--4---|---4-4-4----|  
A|-2-2-|----1-1-1----|--------------|------------|
E|-----|-------------|-------4--4---|---2-2-2----|   
 We’ve gone too deep to just let this   fly

   B         B/Bb            G#m          F#
e|-----|-------------|--------------|------------|
B|-----|-------------|--------------|------------|
G|-4-4-|----4-4-4----|-------4--4---|---4-4-4----|
D|-4-4-|----4-4-4----|-------4--4---|---4-4-4----|  
A|-2-2-|----1-1-1----|--------------|------------|
E|-----|-------------|-------4--4---|---2-2-2----|
So please  hold on and    let me       save us





-------
Chorus | Walter Michael De la Cruz Rockz
-------

   B         B/Bb            G#m          F#
e|-----|-------------|--------------|------------|
B|-----|-------------|--------------|------------|
G|-4-4-|----4-4-4----|-------4--4---|---4-4-4----|
D|-4-4-|----4-4-4----|-------4--4---|---4-4-4----|  
A|-2-2-|----1-1-1----|--------------|------------|
E|-----|-------------|-------4--4---|---2-2-2----|
  Wasn’t it enough to let you feel the sun?

   B         B/Bb            G#m          F#
e|-----|-------------|--------------|------------|
B|-----|-------------|--------------|------------|
G|-4-4-|----4-4-4----|-------4--4---|---4-4-4----|
D|-4-4-|----4-4-4----|-------4--4---|---4-4-4----|  
A|-2-2-|----1-1-1----|--------------|------------|
E|-----|-------------|-------4--4---|---2-2-2----|
   Am      I not      worth every        fall?

   B         B/Bb            G#m          F#
e|-----|-------------|--------------|------------|
B|-----|-------------|--------------|------------|
G|-4-4-|----4-4-4----|-------4--4---|---4-4-4----|
D|-4-4-|----4-4-4----|-------4--4---|---4-4-4----|  
A|-2-2-|----1-1-1----|--------------|------------|
E|-----|-------------|-------4--4---|---2-2-2----|   
 We’ve gone too deep to just let this   fly

   B         B/Bb            G#m          F#
e|-----|-------------|--------------|------------|
B|-----|-------------|--------------|------------|
G|-4-4-|----4-4-4----|-------4--4---|---4-4-4----|
D|-4-4-|----4-4-4----|-------4--4---|---4-4-4----|  
A|-2-2-|----1-1-1----|--------------|------------|
E|-----|-------------|-------4--4---|---2-2-2----|
So please  hold on and    let me       save us

   B         B/Bb            G#m          F#
e|-----|-------------|--------------|------------|
B|-----|-------------|--------------|------------|
G|-4-4-|----4-4-4----|-------4--4---|---4-4-4----|
D|-4-4-|----4-4-4----|-------4--4---|---4-4-4----|  
A|-2-2-|----1-1-1----|--------------|------------|
E|-----|-------------|-------4--4---|---2-2-2----|
   Please hold on and       let me     save us






P.S.
_______________________________________________________
If you've got  comments  or  suggestions  about my  tab|
I wanna hear it from you! Hit me back at  my  email add|
or you can   send   me   a  message  in   friendster at|
Walterfdelacruz@yahoo.com or Michaelfdelacruz@yahoo.com|
_______________________________________________________|


All Rights Reserved
© Copyright 2008

Please Support the OPM Industry. 
And also, Please Support my Tab.

Thanks.
Rock oUt.
Walter Michael Rocks Ultimate Guitar!

            
            
Suggest correction
Creating personal tab
Creating personal tab
You can edit any tab online and save it as your Personal.

You can edit, replace or remove any tab part or add personal notes – all changes will be seen only by you.

Personal tabs can be accessed anytime from any device, even offline.
Learn more »
comments
print report bad tab
5 comments total. Showing first comments.
0 reply
zachyboy 10 Sep 11, 2007 12:29 AM

Pare, will try it...astig tong kantang ito. Thanks for the tabs.

0 reply
11happy11 50 Dec 13, 2007 07:54 PM

try this...
B
E
e|-----|-----|
B|-----|-----|
G|---4-----6-----|---11-
----11-----|
D|-----4-----4---4--|----
-9-----9----4--|

A|-2-----2-----2----|-7--
---7-----7-----|
E|-----|-----|

G#m

F#
e|-----|-----|
B|-----|-----|
G|---4-----4-----4-|---4-

-----6-----|
D|-----4-----4-----|-----
4-----4--4-----|

A|-----|-----|
E|-4-----4-----4---|-2---
--2-----2-----|

parang masmalapit i2
bro
pero nice tab almost perfect na..

0 reply
11happy11 50 Dec 13, 2007 07:55 PM

try this...
B E

e|-----|-----|
B|-----|-----|
G|---4-----6-----|---11--

---11-----|
D|-----4-----4---4--|----
-9-----9----4--|
A|-2-----2-----2----|-7--
---7-----7-----|
E|-----
-----|-----|

G#m F#

e|-----|-----|
B|-----|-----|
G|---4-----4-----4-|---4-
--
---6-----|
D|-----4-----4-----|-----
4-----4--4-----|
A|-----|-----|
E|-4-----4--
---4---|-2-----2-----2---
--|

parang masmalapit i2 bro
pero nice tab almost perfect na..

guest
You may want to rate the tab now too:
select rating
Wanna post a correction for this tab? Suggest correction