Oops, an error
Loading. Please wait.

Archipelago ukulele

151 views 1 this week
1 commentread comment
1 2 3 4 5
3 more votes to show rating
add to favorites
×
Save as Personal and add changes to this tab that will be seen only by you. Learn more ›
×
You can save this tab as Personal to edit and correct it or add notes. All changes will be seen only by you. Learn more »
launch autoscroll
font size
0
reset
transpose
0
reset
display chords
guitar tuner
edit
Autoscroll
slow
fast
+/-
esc
set tempo
stop
Strumming
There is no strumming pattern for this song yet. and get +5 IQ
so uh! ive never made full tabs/chords for any song before so i dunno how good this is
i noticed there wasnt anything for this song on here and i figured id take it upon myself to change that
enjoy!


IMPORTANT NOTE: this was written for fA#DG tuning. the fingerpicking wont work for other tuning unless you
transpose the chords, but if you dont fingerpick you should be fine
 

[Intro]
 
G|--------0--7-----0--3-------0-------|
D|-----3-------------------3-------3--|
A|-0----------------------------4-----|
F|------------------------------------|
 
Bb Eb F
 
 
[Verse]
 
Bb          Eb             F    Eb          Bb
Please, the ward he offers me a pack of cigarettes.
     Eb              F     Eb             Bb
They aren’t his, and yet I feel it coming on
          Eb          F                Eb
I feel it coming on a sense of welling grief
    Bb                     Eb           F              Eb
And though they‘re serving samovar, somehow I’d rather be
 
 
[Chorus]
 
         Bb                 Eb
Up in an airplane above the archipelago.
  Gm              Cm    F      Bb                 Eb
I stuttered in my armour in an airplane above the archipelago.
        Gm                             Cm          F
Now I see where you grew up, and the murderer in me.
 
 
[Instrumental]
 
G|---------------2-2-----5-5--2-2--10-10--8-8-8-8-8-8-8-8-7-7-7-7-5-5-5-5|
D|-----------0-0---------------------------------------------------------|
A|--0-0------------------------------------------------------------------| x2
F|-------0-0---------0-0-------------------------------------------------|

 
G|------------0--2-3--------------0--2-3--------2-3------------|
D|---0-------------------1-0-----------------1---------1-0-----|
A|-0----0--------------------2-0----------------------------2-0| x2
F|---------0----------0-------------------0---------0----------|
  
 
[Verse 2]
 
Bb          Eb              F
Please, the blanket and the sheets,
    Eb                  Bb        Eb          F
The leaves the gardener rakes are articles of faith.
    Eb        Bb                 Eb        F                   Eb
The company believes I’m running derelict around these foreign streets.
    Bb              Eb                F               Bb
The colonel knows I want to crack his head for taking me
 
 
[Chorus]
 
         Bb                 Eb
Up in an airplane above the archipelago.
  Gm              Cm    F      Bb                 Eb
I stuttered in my armour in an airplane above the archipelago.
        Gm                             Cm          F
I could see where you grew up, and the murderer in me.
 
 
[Instrumental]
 
G|---------------2-2-----5-5--2-2--10-10--8-8-8-8-8-8-8-8-7-7-7-7-5-5-5-5|
D|-----------0-0---------------------------------------------------------|
A|--0-0------------------------------------------------------------------| x2
F|-------0-0---------0-0-------------------------------------------------|
 
 
 
[Bridge]
(you can play chords or fingerpick here, either one)
 
G|------------0--2-3--------------0--2-3--------2-3------------|
D|---0-------------------1-0-----------------1---------1-0-----|
A|-0----0--------------------2-0----------------------------2-0|
F|---------0----------0-------------------0---------0----------|
 
     Bb                Eb      F              Eb
They said there was an ice age forty thousand years ago.
Bb           Eb        F              Eb
Incidents of road rage warring on the streets below.
[x2]
 
  Below...          Below...          Below...
G|------------0--2-3--------------0--2-3--------2-3------------|
D|---0-------------------1-0-----------------1---------1-0-----|
A|-0----0--------------------2-0----------------------------2-0| x4
F|---------0----------0-------------------0---------0----------|
 
 
[Chorus]
 
         Bb                 Eb
Up in an airplane above the archipelago.
  Gm              Cm    F      Bb                 Eb
I stuttered in my armour in an airplane above the archipelago.
        Gm                             Cm          F
Now I see where you grew up, and the murderer in me.

            
            
Suggest correction
Creating personal tab
Creating personal tab
You can edit any tab online and save it as your Personal.

You can edit, replace or remove any tab part or add personal notes – all changes will be seen only by you.

Personal tabs can be accessed anytime from any device, even offline.
Learn more »
Give kudos to tab author, rate the tab!
1 2 3 4 5
comments
print report bad tab
1 comment total.
0 reply
aphelionic 10 Sep 09, 2016 10:22 AM

pbth i posted this before i got an account

guest
Wanna post a correction for this tab? Suggest correction