Oops, an error
Loading. Please wait.

Glamorous Sky tab

version 1
version 1

Whole song

Interactive

34,867 views 15 this week
no commentswrite comment
1 2 3 4 5
x 6
add to favorites
×
Save as Personal and add changes to this tab that will be seen only by you. Learn more ›
×
You can save this tab as Personal to edit and correct it or add notes. All changes will be seen only by you. Learn more »
launch autoscroll
font size
0
reset
how to read this tab
guitar tuner
edit
Autoscroll
slow
fast
+/-
esc
set tempo
stop
Author
Here's the tab for Mika Nakashima's "Glamorous Sky"
Okay, straight away, it comes in with guitar and voice. The guitar is palm muted at 
(I'll also note here, when there is a * next to a note, it means, let it ring).

E|---------------------------------------------------------|
B|---------------------------------------------------------|
G|-9-9-9-9-9-9-9-9-4-4-4-4-4-4-4-4-2-2-2-2-2-2-2-2-4-4-4-4-|
D|-9-9-9-9-9-9-9-9-4-4-4-4-4-4-4-4-2-2-2-2-2-2-2-2-4-4-4-4-|
A|-7-7-7-7-7-7-7-7-2-2-2-2-2-2-2-2-0-0-0-0-0-0-0-0-2-2-2-2-|
E|---------------------------------------------------------|
PM ........................................................
"akehanashita mado ni mawaru ranbu no deep sky"

E|------------------------------------------------------------------|
B|------------------------------------------------------------------|
G|-6-6-6-6-6-6-6-6-4-4-4-4-4-4-4-4-222-222-2-2-444-4-4-4-4-4-4------|
D|-6-6-6-6-6-6-6-6-4-4-4-4-4-4-4-4-222-222-2-2-444-4-4-4-4-4-4------|
A|-4-4-4-4-4-4-4-4-2-2-2-2-2-2-2-2-000-000-0-0-222-2-2-2-2-2-2------|
E|------------------------------------------------------------------|
PM .....................until here ^^^
"Ah... Aoi de"

As you're playing the last chord, another guitar plays this over the top:
E|-------------------------|
B|-------------------------|
G|-\7--7-7-7-7-10-10-10-/5-|
D|-------------------------|
A|-------------------------|
E|-------------------------|

Then, when Mika begins to sing again, you play:
E|---------------------------------------------------------|
B|---------------------------------------------------------|
G|-9-9-9-9-9-9-9-9-4-4-4-4-4-4-4-4-2-2-2-2-2-2-2-2-2-2-2-2-|
D|-9-9-9-9-9-9-9-9-4-4-4-4-4-4-4-4-2-2-2-2-2-2-2-2-2-2-2-2-|
A|-7-7-7-7-7-7-7-7-2-2-2-2-2-2-2-2-0-0-0-0-0-0-0-0-0-0-0-0-|
E|---------------------------------------------------------|

E|------------------------------------------------------------------|
B|------------------------------------------------------------------|
G|-6-6-6-6-6-6-6-6-4-4-4-4-4-4-4-4-2-2-2-2-2-2-2-2-4-4-4-4-4-4-4-4--|
D|-6-6-6-6-6-6-6-6-4-4-4-4-4-4-4-4-2-2-2-2-2-2-2-2-4-4-4-4-4-4-4-4--|
A|-4-4-4-4-4-4-4-4-2-2-2-2-2-2-2-2-0-0-0-0-0-0-0-0-2-2-2-2-2-2-2-2--|
E|------------------------------------------------------------------|
And repeat this until you hear the word : "Flashback"

But, JUST as she sings the line "haneageru puddle", play this - (harmonics). {I may have 
wrong but it's the closest I could get to it sounding right.}

E|-----------5-5-9-9-|
B|--------5-5--------|
G|-------------------|
D|-----5-5-----------|      All as harmonics, remember.
A|-5-5---------------|
E|-------------------|


(After the word "Flashback")
E|------------------------------------|
B|------------------------------------|
G|-2-2-2*--2-2-2*----4-4-4*--4-4-4*---|
D|-2-2-2*--2-2-2*----4-4-4*--4-4-4*---|
A|-0-0-0*--0-0-0*----2-2-2*--2-2-2*---|
E|------------------------------------|
PM ....   ....       ...     ...
"Kimi wa Clever. I'll remember."


Now for the chorus.

E|-----------------------------------------------------------------|
B|-----------------------------------------------------------------|
G|-2-2-2-2-2-2-2-2-4-4-4-4-4-4-4-4-6-6-6-6-6-6-6-6-----------------|
D|-2-2-2-2-2-2-2-2-4-4-4-4-4-4-4-4-6-6-6-6-6-6-6-6-6-6-6-6-6-6-6-6-|
A|-0-0-0-0-0-0-0-0-2-2-2-2-2-2-2-2-4-4-4-4-4-4-4-4-6-6-6-6-6-6-6-6-|
E|-------------------------------------------------4-4-4-4-4-4-4-4-|
"Ano niji o watatte"


E|-----------------------------------------------------------------|
B|-----------------------------------------------------------------|
G|-2-2-2-2-2-2-2-2-4-4-4-4-4-4-4-4-6-6-6-6-6-6-6-6-4-4-4-4-4-4-4-4-|
D|-2-2-2-2-2-2-2-2-4-4-4-4-4-4-4-4-6-6-6-6-6-6-6-6-4-4-4-4-4-4-4-4-|
A|-0-0-0-0-0-0-0-0-2-2-2-2-2-2-2-2-4-4-4-4-4-4-4-4-2-2-2-2-2-2-2-2-|
E|-----------------------------------------------------------------|
"Ano asa ni kaeritai"

E|-----------------------------------------------------------------|
B|-----------------------------------------------------------------|
G|-2-2-2-2-2-2-2-2-4-4-4-4-4-4-4-4-6-6-6-6-6-6-6-6-----------------|
D|-2-2-2-2-2-2-2-2-4-4-4-4-4-4-4-4-6-6-6-6-6-6-6-6-6-6-6-6-6-6-6-6-|
A|-0-0-0-0-0-0-0-0-2-2-2-2-2-2-2-2-4-4-4-4-4-4-4-4-6-6-6-6-6-6-6-6-|
E|-------------------------------------------------4-4-4-4-4-4-4-4-|
"Ano yume o narabete"

E|-------------------------------------|
B|-------------------------------------|
G|-2-2-2-2-2-2-2-2-4-4-4-4-4-4-4-4-6*--|
D|-2-2-2-2-2-2-2-2-4-4-4-4-4-4-4-4-6*--|
A|-0-0-0-0-0-0-0-0-2-2-2-2-2-2-2-2-4*--|
E|-------------------------------------|
"Futari aruita Glamorous days"

Before the next verse, you get this little thing played:
E|------------------------------------------|
B|-7-------------7-------------7------------|
G|---8--9--8--------8--9--8-------8-9-8--2--|
D|------------9--------------9-----------2--|
A|---------------------------------------0--|
E|------------------------------------------|

And then back into the verse and chorus again as normal. But, at the end of the chorus, 
into this from the last note:

E|-------------------------------|
B|-------------------------------|
G|-2--2--2*---2-2-2--4--4--4--4--|
D|-2--2--2*---2-2-2--4--4--4--4--|
A|-0--0--0*---0-0-0--2--2--2--2--|
E|-------------------------------|
And repeat this until: "nemurenai yo"

And then is the solo:
E|--------------------------------------------------------------------|
B|--------------------------------------------------------------------|
G|--------------------------------------------------------------------|
D|-\6-6-6-6-6-6-6-6-1-1-1-1-1-1-7-7-7-7-7-7-7-1-2-2-2-----------------|
A|----------------------------------------------------4-4-4-4-4-4-4-4-|
E|--------------------------------------------------------------------|

E|----------------------------12-12-12-12-12-12-12-11-11-11-12-12-12-12-14-14-14-14-14-14-14-14/16-|
B|----------------------------9--9--9--9--9--9--9--9--9--9--9--9--9--9--12-12-12-12-12-12-12-12/14-|
G|-------------------------------------------------------------------------------------------------|
D|-6-6-6-6-6-6-7-7-7-7-7-7-7-7---------------------------------------------------------------------|
A|-------------------------------------------------------------------------------------------------|
E|-------------------------------------------------------------------------------------------------|

If you'd rather play rhythm, then just play this over it:
E|-----------------------------------------------------------------|
B|-----------------------------------------------------------------|
G|---------------------------------2-2-2-2-2-2-2-2-2-2-2-2-2-2-2-2-|
D|-6-6-6-6-6-6-6-6-6-6-6-6-6-6-6-6-2-2-2-2-2-2-2-2-2-2-2-2-2-2-2-2-| x2
A|-6-6-6-6-6-6-6-6-6-6-6-6-6-6-6-6-0-0-0-0-0-0-0-0-0-0-0-0-0-0-0-0-|
E|-4-4-4-4-4-4-4-4-4-4-4-4-4-4-4-4---------------------------------|

Then:
E|-----------------------------------------------------------------|
B|-----------------------------------------------------------------|
G|-4-4-4-4-4-4-4-4-4-4-4-4-4-4-4-4-6-6-6-6-6-6-6-6-4-4-4-4-4-4-4-4-|
D|-4-4-4-4-4-4-4-4-4-4-4-4-4-4-4-4-6-6-6-6-6-6-6-6-4-4-4-4-4-4-4-4-|
A|-2-2-2-2-2-2-2-2-2-2-2-2-2-2-2-2-4-4-4-4-4-4-4-4-2-2-2-2-2-2-2-2-|
E|-----------------------------------------------------------------|

(You can slide up to E here if you want to be fancy}

Now, the next bit "Sunday, Monday...", you play this:
E|-----------------------------------------|
B|-----------------------------------------|
G|-2*---4*---6*--------2*---4*---6*---6*---|
D|-2*---4*---6*---6*---2*---4*---6*---6*---|
A|-0*---2*---4*---6*---0*---2*---4*---4*---|
E|----------------4*-----------------------|
Until the words "yamikumo kieru full moon" There, you play:

E|----------------|
B|----------------|
G|-2*---4*---6*---|
D|-2*---4*---6*---| x2
A|-0*---2*---4*---|
E|----------------|

Then back into the chorus, which goes round twice, I think.

End on C#, or:
E|---
B|---
G|-6-
D|-6-
A|-4-
E|---

This was quite an easy song to figure out, and it's a great song!
email: take_this_for_a_paradox@hotmail.com if there's any questions or problems ^_^

            
            
Suggest correction
Creating personal tab
Creating personal tab
You can edit any tab online and save it as your Personal.

You can edit, replace or remove any tab part or add personal notes – all changes will be seen only by you.

Personal tabs can be accessed anytime from any device, even offline.
Learn more »
comments
print report bad tab
guest
You may want to rate the tab now too:
select rating
Wanna post a correction for this tab? Suggest correction