Oops, an error
Loading. Please wait.

Yuki No Hana tab

version 2
version 2

Whole song

10,374 views 3 this week
no commentswrite comment
1 2 3 4 5
3 more votes to show rating
add to favorites
×
Save as Personal and add changes to this tab that will be seen only by you. Learn more ›
×
You can save this tab as Personal to edit and correct it or add notes. All changes will be seen only by you. Learn more »
launch autoscroll
font size
0
reset
how to read this tab
guitar tuner
edit
Autoscroll
slow
fast
+/-
esc
set tempo
stop
Author
Difficulty
Here are the parts that are not included in the other tab.



e|--------|---0-------0--3---------------3------|----------------------------------------------|
B|--------|-------3----------3-----------3------|---------1---1---------------1----------1--3--|
G|-----0--|-------0------------------0-------0--|---0/2----------2------------------0----------|
D|--------|-------------------------------------|---3---------3----------2-----2---------------|
A|--------|---3------------------2--------------|--------------------3------------2------------|
E|--------|-------------------------------------|----------------------------------------------|

e|---0-------0---3/5---3-------0---|---0/1---0-----------0--------------------------|
B|-------3---------------------0---|-------------3---1-------3-----------0----------|
G|-------0---------------------0---|-------------2---2-------------------0------0---|
D|-------------------------4-------|---0-----------------------------3-------0------|
A|---0-----------------------------|------------------------------------------------|
E|---------------------0-----------|-----------------------------3-------3----------|

e|---0-------0--3---------------3------|----------------------------------------------|
B|-------3----------3-----------3------|---------1---1--------------------------1--3--|
G|-------0------------------0-------0--|---0/2----------2---0-------0------0----------|
D|-------------------------------------|---3---------3----------2---------------------|
A|---3------------------2--------------|--------------------3----------2--------------|
E|-------------------------------------|----------------------------------------------|


e|---0-------0---3/5---3-------0---|---0/1---0------------------------------|
B|-------3---------------------0---|-------------3-------1---1-------1------|
G|-------0---------------------0---|-------------2-------2---0-------0------|
D|-------------------------4-------|---0-------------------------3-------3--|
A|---0-----------------------------|-------------------------3--------------|
E|---------------------0-----------|-----------------3----------------------|

e|--------------------3-------3------|--3---1---0----------------------------|
B|--1-------------1---1-------1------|--1---1---0---3---1/3-------3---1---0--|
G|--0-------0/2-------2-------2------|--1---1---1---1-------------0---0---0--|
D|------2-------------3---3-------3--|------------------------2--------------|
A|--3--------------------------------|------------------0--------------------|
E|-----------------------------------|--0------------------------------------|

e|--0/1-----------------3-------3------|--3---1---0-----------0---0---------------0--------------|
B|------------------1---1-------1------|--1---1---0-------3-------------------1---------------1--|
G|------------0/2-------2-------2------|--1---1---1-------1---------------4---------------4------|
D|--------2-------------3---3-------3--|------------------------------2---------------2----------|
A|-------------------------------------|--------------------------0------------------------------|
E|--3----------------------------------|--0-----------0------------------------------------------|

e|--0-----------------------------7--|--7/8---7----------------------------------|
B|----------1---1---10-------10------|--7---------10-------7---7/8-------8---10--|
G|----------0---0----9--------9------|--8----------8-------8---7---------7----7--|
D|------2-----------10-------10------|-------------------------------------------|
A|-------------------9---9-----------|-------------------------7-----7-----------|
E|--3--------------------------------|--7--------------7-------------------------|

e|--5/6---5----------------------------------|----5---------------4/5-------5---4---5--|
B|--5---------8-------5/6---4/5-------5------|--5--5--------------5---------5---5---5--|
G|--6---------6-------6-----4/5-------5---5--|-5-5--5-------------4---------4---4---4--|
D|--------------------------0-----0----------|0----------------------------------------|
A|-------------------------------------------|-----------------------------------------|
E|--5-------------5--------------------------|--------------------0-----0--------------|

e|--5/7---------------7/8---7---7/8---7--|--7/8---7---5------------12---12--|
B|--5---------5---5---5-----5---5-----5--|--5-----5-------8---10---10---10--|
G|--4---------4---4---5-----5---5-----5--|--5-----5-------5---10---10---10--|
D|---------------------------------------|--5-------------------------------|
A|--------------------0---------0--------|---------------------8------------|
E|--0-----0------------------------------|----------------------------------|

e|------7---8---10---7-----------------------10--|--8---------------------------------5------|
B|------0---0----0---0---10---8/10---8---8-------|--5-------5---6---8---6/8---6---6----------|
G|------0---0----0---0----0---0------0---0-------|--5-------5---5---5---5-----5---5----------|
D|-----------------------------------------------|----------------------0--------------------|
A|--8--------------------------------------------|--0---0------------------------------------|
E|----------------------------0------------------|-------------------------------------------|

 |--------------------4/5-------5---4---5--|
B|--------------------5---------5---5---5--|
G|--------------------4---------4---4---4--|
D|-----------------------------------------|
A|-----------------------------------------|
E|--------------------0--------------------|

e|--5/7---------------7/8---7---7/8---7--|--7/8---7---5------------12---12--|
B|--5-----------------5-----5---5-----5--|--5-----5-------8---10---10---10--|
G|--4-----------------5-----5---5-----5--|--5-----5-------5---10---10---10--|
D|---------------------------------------|--5-------------------------------|
A|--------------------0---------0--------|---------------------8------------|
E|--0------------------------------------|----------------------------------|

e|------7---8---10---7-----------------------10--|--8---------------------------------5---3--|
B|------0---0----0---0---10---8/10---8---8-------|--5-------5---6---8---6/8---6---6-------0--|
G|------0---0----0---0----0---0------0---0-------|--5-------5---5---5---5-----5---5----------|
D|-----------------------------------------------|----------------------0--------------------|
A|--8--------------------------------------------|--0---0------------------------------------|
E|----------------------------0------------------|----------------------------------------0--|




e|--0---------------------------1/3---1---1---0--------0
B|------3---1---------------1---1-----1---1-----3----3--3
G|----------0-------0h2---------2-----2---------0--------0
D|------------------------------0---------------------
A|----------------------------------------------------
E|--------------0-------------------------------3--3



e|------3-3----------------0-----------|--------|
B|h1--1-1-1-h1---1---1-----1----------|-------|
G|h2--2-2-2--0---0---0-----0---------|----|
D|-3-3-3-3-3-2---2---2---------------|----|
A|-----------3-3-3-3-3--3--------------|-----
E|-------------------------------------|--------|

e|--------|---0-------0--3---------------3------|----------------------------------------------|
B|--------|-------3----------3-----------3------|---------1---1--------------------------1--3--|
G|-----0--|-------0------------------0-------0--|---0/2-------2--2---0-------0------0----------|
D|--------|-------------------------------------|---3--------------------2---------------------|
A|--------|---3------------------2--------------|--------------------3----------2--------------|
E|--------|-------------------------------------|----------------------------------------------|

e|---0-------0---3/5---3-------0---|---0/1---0-----------0--------------------------|
B|-------3---------------------0---|-------------3---1-------3-----------0----------|
G|-------0---------------------0---|-------------2---2-------------------0------0---|
D|-------------------------4-------|---0-----------------------------3-------0------|
A|---0-----------------------------|------------------------------------------------|
E|---------------------0-----------|-----------------------------3-------3----------|

e|---0-------0--3---------------3------|----------------------------------------------|
B|-------3----------3-----------3------|---------1---1--------------------------1--3--|
G|-------0------------------0-------0--|---0/2-------2--2---0-------0------0----------|
D|-------------------------------------|---3--------------------2---------------------|
A|---3------------------2--------------|--------------------3----------2--------------|
E|-------------------------------------|----------------------------------------------|
 

e|---0-------0---3/5---3-------0---|---0/1---0------------------------------|
B|-------3---------------------0---|-------------3-------1-----------------|1
G|-------0---------------------0---|-------------2-------2-----------------|0
D|-------------------------4-------|---0-----------------------------------|2
A|---0-----------------------------|---------------------------------------|3
E|---------------------0-----------|-----------------3----------------------|






            
            
Suggest correction
Creating personal tab
Creating personal tab
You can edit any tab online and save it as your Personal.

You can edit, replace or remove any tab part or add personal notes – all changes will be seen only by you.

Personal tabs can be accessed anytime from any device, even offline.
Learn more »
Give kudos to tab author, rate the tab!
1 2 3 4 5
comments
print report bad tab
guest
You may want to rate the tab now too:
select rating
Wanna post a correction for this tab? Suggest correction