Oops, an error
Loading. Please wait.

Wednesday Contra La Puerta tab

97 views 3 this week
1 commentread comment
1 2 3 4 5
3 more votes to show rating
add to favorites
×
Save as Personal and add changes to this tab that will be seen only by you. Learn more ›
×
You can save this tab as Personal to edit and correct it or add notes. All changes will be seen only by you. Learn more »
launch autoscroll
font size
0
reset
how to read this tab
guitar tuner
edit
Autoscroll
slow
fast
+/-
esc
set tempo
stop
A simple riff played over and over. I threw in some of the key fills... enjoy!

-e_b


[Intro]

e|---------------------------------------------------------------------------|
B|---------------------------------------------------------------------------|
G|---------------------------------------------------------------------------|
D|---------------------------------------------------------------------------| 
A|----6---3-----6---3-----6---3-----6---3-----6---3-----6---3----------------|
E|--4---6-----4---6-----4---6-----4---6-----4---6-----4---6------------------|


[Verse 1]

e|---------------------------------------------------------------------------|
B|---------------------------------------------------------------------------|
G|---------------------------------------------------------------------------|
D|---------------------------------------------------------------------------|
A|------------------------6---3----------------------------6------3----------|
E|--------------------4-----6----------------------4----------6--------------|
  Boats moored in the water    The green waves are rolling at the shore

e|---------------------------------------------------------------------------|
B|---------------------------------------------------------------------------|
G|---------------------------------------------------------------------------|
D|---------------------------------------------------------------------------|
A|-----------------------6-----3------------------------6----------3---------|
E|-------------------4-------6----------------4----------------6-------------|
  I love to see them reaching    I just wanna stay this joyous hour

e|--------------------------------------------------------------------------------|
B|--------------------------------------------------------------------------------|
G|--------------------------------------------------------------------------------|
D|--------------------------------------------------------------------------------|
A|-----------------6---3------------6---3---------6------3-----------------6---3--|
E|---------------4---6------------4---6---------4------6---------------4-----6----|
   Your sorrow is        beautiful        To me tonight    so cold and bright


[Chorus 1]

   Absus2  Bb                       Eb
e|----------------------------------3----------6-----------------------------|
B|----------------------------------4------------6-8----6-8-6----------------|
G|-----3--3-------------------------3--------8----------------8--------------|
D|-----6--3-------------------------5----------------------------------------|
A|-----6--5-------------------------6----------------------------------------|
E|-----4--6------------------------------------------------------------------|
   And I, I don’t want to wait ‘til Wednesday

   Absus2      Bb                                Eb
e|------------------------------------------------3-----6--------------------|
B|------------------------------------------------4-------6-8------8-6-------|
G|----3----------3--------------------------------3---8----------8-----5-----|
D|----6----------3--------------------------------5--------------------------|
A|----6----------5--------------------------------6--------------------------|
E|----4----------6-----------------------------------------------------------|
   So bright, so bright and cold this bitter long day

e|---------------------------------------------------------------------------|
B|---------------------------------------------------------------------------|
G|---------------------------------------------------------------------------|
D|---------------------------------------------------------------------------| 
A|----6-----3------------------6---3-----6---3-----6---3---------------------|
E|--4----6-------------------4---6-----4---6-----4---6-----------------------|
   No se apoye contra la puerta


[Verse 2]

e|---------------------------------------------------------------------------|
B|---------------------------------------------------------------------------|
G|---------------------------------------------------------------------------|
D|---------------------------------------------------------------------------|
A|-----------------6----3------------------------6-------------3-------------|
E|--------------4-----6------------------4---------------6-------------------|
   Beep Josh on Sunday    Charm him into driving in from Queens

e|---------------------------------------------------------------------------|
B|---------------------------------------------------------------------------|
G|---------------------------------------------------------------------------|
D|---------------------------------------------------------------------------|
A|--------------------6-----3---------------------6----------3---------------|
E|---------------4--------6------------------4-------------6-----------------|
   Coming up the staircase     Bringing tiny envelopes for me

e|----------------------------------------------------------------------------------------|
B|----------------------------------------------------------------------------------------|
G|----------------------------------------------------------------------------------------|
D|----------------------------------------------------------------------------------------|
A|-----------------6---3------------6---3-----------------6------3-----------------6---3--|
E|---------------4---6------------4---6----------------4------6----------------4-----6----|
   This night it is      beautiful        The stars in flight      so cold and bright
   

[Chorus 2]

  Absus2  Bb                     Eb
e|--------------------------------3--------6-8-11----13-11------------------|
B|--------------------------------4------------------------13---------------|
G|-----3--3-----------------------3------8----------------------------------|
D|-----6--3-----------------------5---------------13------------------------|
A|-----6--5-----------------------6-----------------------------------------|
E|-----4--6-----------------------------------------------------------------|
   And I, I want to see my crush again, yeah

   Absus2    Bb                                        Eb
e|------------------------------------------------------3----6-----------------|
B|------------------------------------------------------4------6-8------8-6----|
G|-----3-------3----------------------------------------3--8----------8-----5--|
D|-----6-------5----------------------------------------5----------------------|
A|-----6-------3----------------------------------------6----------------------|
E|-----4-------6---------------------------------------------------------------|
   The magical correction, I dream the world speeds on, yeah

e|----------------------------------------------------------------------------------|
B|----------------------------------------------------------------------------------|
G|----------------------------------------------------------------------------------|
D|----------------------------------------------------------------------------------| 
A|----6-----3------------------6---3------6-----3------------------6---3-----6---3--|
E|--4----6-------------------4---6------4----6-------------------4---6-----4---6----|
   No se apoye contra la puerta        No se apoye contra la puerta


[Verse 3]

e|---------------------------------------------------------------------------|
B|---------------------------------------------------------------------------|
G|---------------------------------------------------------------------------|
D|---------------------------------------------------------------------------|
A|-----------------6----3-------------------6------------3-------------------|
E|--------------4-----6-----------------4------------6-----------------------|
   Maybe I’m a loser      Maybe I’m the unsuspecting lord

e|---------------------------------------------------------------------------|
B|---------------------------------------------------------------------------|
G|---------------------------------------------------------------------------|
D|---------------------------------------------------------------------------|
A|----------------6----3-----------------------6-----------3-----------------|
E|-------------4-----6------------------4-------------6----------------------|
   Maybe I’m a rapper    Maybe I’m just living by the sword

e|--------------------------------------------------------------------------------|
B|--------------------------------------------------------------------------------|
G|--------------------------------------------------------------------------------|
D|--------------------------------------------------------------------------------|
A|-----------------6---3------------6---3---------6------3-----------------6---3--|
E|---------------4---6------------4---6---------4------6---------------4-----6----|
   Your sorrow is        beautiful        To me tonight    so cold and bright


[Chorus 3]

  Absus2  Bb                       Eb
e|----------------------------------3----------6-----------------------------|
B|----------------------------------4------------6-8----6-8-6----------------|
G|-----3--3-------------------------3--------8----------------8--------------|
D|-----6--3-------------------------5----------------------------------------|
A|-----6--5-------------------------6----------------------------------------|
E|-----4--6------------------------------------------------------------------|
   And I, I don’t want to wait ‘til Wednesday

    Absus2     Bb                                Eb
e|------------------------------------------------3-----6--------------------|
B|------------------------------------------------4-------6-8------8-6-------|
G|----3----------3--------------------------------3---8----------8-----5-----|
D|----6----------3--------------------------------5--------------------------|
A|----6----------5--------------------------------6--------------------------|
E|----4----------6-----------------------------------------------------------|
   So bright, so bright and cold this bitter long day

e|---------------------------15----------------------------------15----------|
B|---------------------------------------------------------------------------|
G|---------------------------------------------------------------------------|
D|---------------------------------------------------------------------------| 
A|----6-----3-----------------------------6-----3----------------------------|
E|--4----6------------------------------4----6-------------------------------|
   No se apoye contra la puerta        No se apoye contra la puerta

e|------------------------------11-13-13p11----------------------11-13-13p11--|
B|---------------------------13-------------------------------13--------------|
G|----------------------------------------------------------------------------|
D|----------------------------------------------------------------------------| 
A|----6-----3-----------------------------------6----------3------------------|
E|--4----6-----------------------------------4---------6----------------------|
   No se apoye contra la puerta              contra la puerta

e|---------------------------------------------------------------------------|
B|---------------------------------------------------------------------------|
G|---------------------------------------------------------------------------|
D|---------------------------------------------------------------------------| 7x 
A|-----------------6---3-----------------------------------------------------|
E|---------------4---6-------------------------------------------------------|
   contra la puerta



************************************

| p  Pull-off

************************************

            
            
Suggest correction
Creating personal tab
Creating personal tab
You can edit any tab online and save it as your Personal.

You can edit, replace or remove any tab part or add personal notes – all changes will be seen only by you.

Personal tabs can be accessed anytime from any device, even offline.
Learn more »
Give kudos to tab author, rate the tab!
1 2 3 4 5
comments
print report bad tab
1 comment total.
0 reply
eccentric_boob 552 Jul 19, 2016 03:22 PM

Not sure if those are the correct chords, - but it does sound better. If someone else has a better ear please comment!

guest
You may want to rate the tab now too:
select rating
Wanna post a correction for this tab? Suggest correction