Oops, an error
Loading. Please wait.

Platinum Part 1 Airborne tab

4,144 views 3 this week
no commentswrite comment
1 2 3 4 5
x 3
add to favorites
×
Save as Personal and add changes to this tab that will be seen only by you. Learn more ›
×
You can save this tab as Personal to edit and correct it or add notes. All changes will be seen only by you. Learn more »
launch autoscroll
font size
0
reset
how to read this tab
guitar tuner
edit
Autoscroll
slow
fast
+/-
esc
set tempo
stop
Author
Difficulty
Mike Oldfield
Platinum Part 1 Airborne 
From Platinum
 
 h = Hammer On
 p = Pull Off
PM = Palm Mute
 s = Slide
 b = Bend


I Can;t Tell If This 1st Bit Is The Bass or Guitar
But He Plays These Notes On The Live Version.
So I Have Wrote Them For Guitar

PM = Palm Mute
[------------------------------------------]
[------------------------------------------]
[------------------------------------------]
[------------------------------------------]
[-----------------7-7--5-5-----------------]
[--5-5--7-7--8-8------------8-8--7-7--3-3--]


[------------------------------------------]
[------------------------------------------]
[------------------------------------------]
[---------------------------5-5--------h---]
[-----------------7-7--5-5-------5-5--5-7--]
[--5-5--7-7--8-8---------------------------]


[--------------------------------------------]
[--------------------------------------------]
[--------------------------------------------]
[--------------------------------------------]
[-----------------7-7--5-5--------h-p--------]
[--5-5--7-7--8-8------------8-8--7-8-7--3-3--]


[------------------------------------------]
[------------------------------------------]
[--------------------------------------h---]
[---------------------------5-5--5-5--5-7--]
[-----------------7-7--5-5-----------------]
[--5-5--7-7--8-8---------------------------]


[------------------------------------------]
[------------------------------------------]
[------------------------------------------]
[--7-7--5-5--------------------------------]
[------------8-8--7-7--5-5------------7-7--]
[---------------------------8-8--7-7-------]


[------------------------------------------]
[------------------------------------------]
[--------------------------------------h---]
[---------------------------5-5--5-5--5-7--]
[-----------------7-7--5-5-----------------]
[--5-5--7-7--8-8---------------------------]


[------------------------------------------]
[------------------------------------------]
[------------------------------------------]
[--7-7--5-5--------------------------------]
[------------8-8--7-7--5-5------------7-7--]
[---------------------------8-8--7-7-------]


[------------------------------------------]
[------------------------------------------]
[------------------------------------------]
[------------------------------------------]
[-----------------7-7--5-5-----------------]
[--5-5--7-7--8-8------------8-8--3-3--5-5--]


00:45
[------------------------------------------]
[------------------------------------------]
[------------------------------------------]
[------------------------------------------]
[-----------------7-7--5-5-----------------]
[--5-5--7-7--8-8------------8-8--7-7--3-3--]


[------------------------------------------]
[------------------------------------------]
[------------------------------------------]
[---------------------------5-5--------h---]
[-----------------7-7--5-5-------5-5--5-7--]
[--5-5--7-7--8-8---------------------------]


[------------------------------------------]
[------------------------------------------]
[------------------------------------------]
[------------------------------------------]
[-----------------7-7--5-5-----------------]
[--5-5--7-7--8-8------------8-8--7-7--3-3--]


[------------------------------------------]
[------------------------------------------]
[--------------------------------------h---]
[---------------------------5-5--5-5--5-7--]
[-----------------7-7--5-5-----------------]
[--5-5--7-7--8-8---------------------------]


00:56
[---------------------|---------------------]
[---------------------|---------------------]
[---------------------|---------------------]
[---------------------|----------------3-3--]
[----------------3-3--|--1-1--3-3--5-5------]
[--1-1--3-3--5-5------|---------------------]


[---------------------|---------------------]
[---------------------|---------------------]
[---------------------|---------------------]
[---------------------|-----------------2---]
[----------------3-3--|--1-1--3-3--5-5------]
[--1-1--3-3--5-5------|---------------------]


[-------------------------------------]
[-------------------------------------]
[-------------------------------------]
[--3-3--------------------------------]
[------3-3---------------3-3-----3-3--]
[----------5-5--1-1--3-3-----3-3------]


[---------------------|---------------------]
[---------------------|---------------------]
[---------------------|---------------------]
[---------------------|---------------------]
[-----------------3-3-|-------3-3-----------]
[--1-1--3-3--5-5------|--3-3------3-3--1-1--]


01:08
[----------------------|----------------------]
[----------------------|----------------------]
[----------------------|----------------------]
[-----------------6-6--|----------------------]
[--4-4--6-6--8-8-------|-----------------4-4--]
[----------------------|--4-4--6-6--8-8-------]


[-----------------------------------------------------------------------]
[-----------------------------------------------------------------------]
[-----------------------------------------------------------------------]
[-----------------4-4--6-6--8-8--10-10--11-11--11--10-10--8-8--6-6--4-4-]
[--4-4--6-6--8-8--------------------------------------------------------]
[-----------------------------------------------------------------------]

[---------------------------------------------------------]
[---------------------------------------------------------]
[---s-----------------------------------------------------]
[--6\8--6-6--4-4-------4-4--6-6------------6-6------------]
[-----------------8-8------------8-8--6-6-------6-6--4-4--]
[---------------------------------------------------------]


01:19
[-------------------|--------------------|---------------------------------]
[-------------------|--------------------|---------------------------------]
[-------------------|--------------------|---------------------------------]
[--------------2-2--|--------------------|--------------0-0--3-3--2-2--4-4-]
[0-0--2-2--4-4------|--------------------|0-0--2-2--4-4--------------------]
[-------------------|0-0--2-2--4-4--5-5--|---------------------------------]


[-------|----------------------------------------|--------------------------]
[-------|----------------------------------------|--This Part---------------]
[-------|----------------------------------------|--Optional--Gt2 Comes In--]
[--6-6--|--7777777777--99999999999--101010101010-|-12121212121212\----------]
[-------|----------------------------------------|--------------------------]
[-------|----------------------------------------|--------------------------]


Distorted Guitar
01:30
[-------------------|----h----------------------|----h---------------------]
[----s---8---8---8--|--10-12--8--10---s---------|--10-12--8--10---s--------]
[--7-\-9---9---9----|---------------9-\-12--12--|---------------9-\-12--12-]
[-------------------|---------------------------|--------------------------]
[-------------------|---------------------------|--------------------------]
[-------------------|---------------------------|--------------------------]


[------------|---h-------------h---10--|-----------------------------------]
[----s-------|-10-12--8--10--10-13-----|-10-12--8--10---s-----------s------]
[-12-\-9--9--|-------------------------|--------------9-\-12--12-12-\-9--9-]
[------------|-------------------------|-----------------------------------]
[------------|-------------------------|-----------------------------------]
[------------|-------------------------|-----------------------------------]

01:43
[----h-------------h----------|----h--------------------------------]
[--10-11--8--10--10-13--13----|--10-11--8--10----s----------s-------]
[-----------------------------|---------------10-\-12-12-12-\10-10--]
[--------------------------10-|-------------------------------------]
[-----------------------------|-------------------------------------]
[-----------------------------|-------------------------------------]


[----h-------------h----------|----h--------------------------------]
[--10-11--8--10--10-13--13----|--10-11--8--10----s----------s-------]
[-----------------------------|---------------10-\-12-12-12-\10-10--]
[--------------------------10-|-------------------------------------]
[-----------------------------|-------------------------------------]
[-----------------------------|-------------------------------------]

01:54
     h                            h            h
[--13-14----13----s----------|--13-14----13--13-16--------s-----]
[--------16----14-\-16-16----|--------16------------16-16-\-14--]
[-------------------------13-|----------------------------------]
[----------------------------|----------------------------------]
[----------------------------|----------------------------------]
[----------------------------|----------------------------------]

     h            h               h
[--13-14----13--13-16-16-----|--13-14----13----s----------s-----]
[--------16------------------|--------16----14-\-16-16-16-\-14--]
[------------------------13--|----------------------------------]
[----------------------------|----------------------------------]
[----------------------------|----------------------------------]
[----------------------------|----------------------------------]

02:05
[----h------------h----------|----h------------h------------------]
[--14-15----14--14-17-17-----|--14-15----14--14-17-------s--------]
[--------16------------------|--------16-----------16-16-\-14-14--]
[------------------------14--|------------------------------------]
[----------------------------|------------------------------------]
[----------------------------|------------------------------------]

02:11
[----h--h--------p--p------|----h--h--------p--p---------]
[--10-11-13----13-11-10----|--10-11-13----13-11-10-13----]
[-----------10----------10-|-----------10-------------12-]
[--------------------------|-----------------------------]
[--------------------------|-----------------------------]
[--------------------------|-----------------------------]


[----h--h--------p--p------|----h--h--------p--p-------]
[--10-11-13----13-11-10----|--10-11-13----13-11-10-----]
[-----------10----------10-|-----------10----------10--]
[--------------------------|---------------------------]
[--------------------------|---------------------------]
[--------------------------|---------------------------]

02:18                                                          s
[----h---------------------|----h-------------h---10--10-15-12-\--]
[--10-12--8--10---s--------|--10-12--8--10--10-13-----------------]
[---------------9-\-12--12-|--------------------------------------]
[--------------------------|--------------------------------------]
[--------------------------|--------------------------------------]
[--------------------------|--------------------------------------]

                    h
[----h-------------8-10-10----|----h-------------8-10-10-15-12-----]
[--10-12--8--10-10------------|--10-12--8--10-10---------------16--]
[-----------------------------|------------------------------------]
[--------------------------10-|------------------------------------]
[-----------------------------|------------------------------------]
[-----------------------------|------------------------------------]


[----h--p--p-------------------------------h--p--p------------------]
[--14-16-14-13----13-14-16----16-----16--14-16-14-13----------------]
[--------------15------------------------------------15--13--12-----]
[--------------------------13-----13----------------------------13--]
[-------------------------------------------------------------------]
[-------------------------------------------------------------------]


02:41
[-------------8---9---11---9---8------|------------8---9---11-]
[---9---11-------------------------11-|---9---11--------------]
[-8---8----8----8---8----8---8---8----|-8---8----8---8---8----]
[-------------------------------------|-----------------------]
[-------------------------------------|-----------------------]
[-------------------------------------|-----------------------]


[-------------8---9---11---9---8---------s----s--]
[----9---11-------------------------11-9-\-21-\9-]
[-8----8----8----8---8----8---8---8--------------]
[------------------------------------------------]
[------------------------------------------------]
[------------------------------------------------]

                                                              s    s
[-------------8---9---11---9---8------|------------8---9---11-\-16-\-11--]
[---9---11-------------------------11-|---9---11--------------|----------]
[-8---8----8----8---8----8---8---8----|-8---8----8---8---8----|----------]
[-------------------------------------|-----------------------|----------]
[-------------------------------------|-----------------------|----------]
[-------------------------------------|-----------------------|----------]


[-------------8---9---11---9---8---------s----s--]
[----9---11-------------------------11-9-\-21-\9-]
[-8----8----8----8---8----8---8---8--------------]
[------------------------------------------------]
[------------------------------------------------]
[------------------------------------------------]


03:04
[-------------------------------|----------------------------------]
[---------h--p--------------h---|---------h--p--------------h---s--]
[--13---11-13-11----11----11-13-|--13---11-13-11----11----11-13-\--]
[----------------13----13-------|----------------13----13----------]
[-------------------------------|----------------------------------]
[-------------------------------|----------------------------------]


03:26                                                       s
[--15----15-------h----15----|--15-----15------------17--15-\-]
[-----15----15--13-15-----15-|-----15-----15--13--15----------]
[----------------------------|--------------------------------]
[----------------------------|--------------------------------]
[----------------------------|--------------------------------]
[----------------------------|--------------------------------]

                                                            s
[--17----17-------h----17----|--17-----17------------19--17-\-]
[-----17----17--15-17-----17-|-----17-----17--15--17----------]
[----------------------------|--------------------------------]
[----------------------------|--------------------------------]
[----------------------------|--------------------------------]
[----------------------------|--------------------------------]

03:49
[---------------h------h----------------|--------------h---14--]
[-------12-12-12-14--12-14--------------|------12-12-12-14-----]
[---h----------------------11-11--11-11-|--h-------------------]
[--9-11---------------------------------|-9-11-----------------]
[---------------------------------------|----------------------]
[---------------------------------------|----------------------]


[---------------h------h----------------|--------------h---14--]
[-------12-12-12-14--12-14--------------|------12-12-12-14-----]
[--------------------------11-11--11-11-|--h-------------------]
[---------------------------------------|-9-11-----------------]
[---------------------------------------|----------------------]
[---------------------------------------|----------------------]

04:00
[-------------------------------15-12-|--------------------------------15-12-]
[-10-10---12-12---13-13---15-15-------|--10-10---12-12---13-13---15-15-------]
[-------9-------9-------9-------------|--------9-------9-------9-------------]
[-------------------------------------|--------------------------------------]
[-------------------------------------|--------------------------------------]
[-------------------------------------|--------------------------------------]

                                           s
[-13-13----15-15----17-17-----18-18--15-20-\-]
[-------13-------13-------13-----------------]
[--------------------------------------------]
[--------------------------------------------]
[--------------------------------------------]
[--------------------------------------------]

                                           s
[-13-13----15-15----17-17-----18-18--15-20-\-]
[-------13-------13-------13-----------------]
[--------------------------------------------]
[--------------------------------------------]
[--------------------------------------------]
[--------------------------------------------]

04:23       h
[--13-13--13-16-------16--------13--------------]
[---------------16-16----14-14-----16-16----14--]
[----------------------------------------13-----]
[-----------------------------------------------]
[-----------------------------------------------]
[-----------------------------------------------]

            h           h
[--13-13--13-16-------13-16-------13----------------]
[---------------16-16-------14-14-----16-16----14---]
[-------------------------------------------13------]
[---------------------------------------------------]
[---------------------------------------------------]
[---------------------------------------------------]

04:34
[--9-9-9----10-10---12-12---16-16----17--]
[-------10------------------------19-----]
[---------9-------9-------9--------------]
[----------------------------------------]
[----------------------------------------]
[----------------------------------------]


04:39                                             h
[--17-18-20----20-18-17----|--17-18-20----20-18-17-20-----]
[-----------20----------18-|-----------20-------------20--]
[--------------------------|------------------------------]
[--------------------------|------------------------------]
[--------------------------|------------------------------]
[--------------------------|------------------------------]

                                                  h
[--17-18-20----20-18-17----|--17-18-20----20-18-17-20----s-]
[-----------20----------18-|-----------20-------------20-\-]
[----------------------------------------------------------]
[----------------------------------------------------------]
[----------------------------------------------------------]
[----------------------------------------------------------]

04:47
[-----------s------------s------------s--------s------------s--]
[--10-10--10\12-12-12--12\13-13-13--13\15-15-15\17-17-17-17-\--]
[--------------------------------------------------------------]
[--------------------------------------------------------------]
[--------------------------------------------------------------]
[--------------------------------------------------------------]


[-----------s------------s------------s--------s------------s--]
[--10-10--10\12-12-12--12\13-13-13--13\15-15-15\17-17-17-17-\--]
[--------------------------------------------------------------]
[--------------------------------------------------------------]
[--------------------------------------------------------------]
[--------------------------------------------------------------]

This was hard too figure out
so what ever you can figure
04:58
[--------s--s--s-------s--s--s----------------------bend up slowly----------]
[--18--17\18\17\18---14\17\14\17----s----s----s----s----s-b--slide down-neck]
[-----------------------------------\12--\12--\12--\12--\12------12\-\-\-\-1]
[---------------------------------------------------------------------------]
[---------------------------------------------------------------------------]
[---------------------------------------------------------------------------]

            
            
Suggest correction
Creating personal tab
Creating personal tab
You can edit any tab online and save it as your Personal.

You can edit, replace or remove any tab part or add personal notes – all changes will be seen only by you.

Personal tabs can be accessed anytime from any device, even offline.
Learn more »
Give kudos to tab author, rate the tab!
1 2 3 4 5
comments
print report bad tab
guest
You may want to rate the tab now too:
select rating
Wanna post a correction for this tab? Suggest correction