Oops, an error
Loading. Please wait.

Sailors Hornpipe tab

version 1
version 1

Whole song

6,800 views 9 this week
2 commentsread comments
1 2 3 4 5
x 3
add to favorites
×
Save as Personal and add changes to this tab that will be seen only by you. Learn more ›
×
You can save this tab as Personal to edit and correct it or add notes. All changes will be seen only by you. Learn more »
launch autoscroll
font size
0
reset
how to read this tab
guitar tuner
edit
Autoscroll
slow
fast
+/-
esc
set tempo
stop
Author
I don't know who's the original writer, so I've put it here.
I didn't write the pull offs and hammerings, 'cause I was to lazy. But I guess it's in the right shape.

* = repeat

Standart tuning

          G                              D
E*------|-3----3-------|--3------3------|-------------|-------------------|
A*------|--------------|----------------|-------------|--5----------------|
D*------|--------------|----------------|-0-----------|--4------0---------|
G*------|---0--0-------|----------------|---2--2--2-0-|----2----2---------|
h*------|---------3-1--|--0-3-----------|------0------|------3--3---------|
e*--3-2-|-3------------|------3--3--5-3-|-5-----------|-------------0--2--|

    C                    Am       Em          C   D    Em   D7    G
E---------------------|-----------0--------|--------------------|-----3--|*
A------------3--------|--0---------------2-|--3---5-------------|--------|*
D---2-----------------|--------------4-2-0-|--2---4----2----4---|--------|* 
G---------------------|------2-0--0--------|----0---2--0----2---|-0-0-0--|*
h---------3----3--1-0-|--1-0---------------|-------------0-----1|-0------|*
e---3-2-0----0--------|--------------------|--------------------|--------|*

          G                  C             A                 D
E*-----|--3--------3-------|-------------|-----------------|-----------|
A*-----|-------------------|-3-----3-----|-0-------0-------|-----------|
D*-----|-------------------|-------------|-----------------|-0---0-----|
G*-----|-------------------|----5--5-----|-----------------|-----------|
h*-3-1-|--0--3---3-0-3---3-|-----------3-|-2-------2-------|---3-3-----|
e*-----|-------3-------3---|-0-------0---|---0-5-0---0-5-0-|-2-----0-2-|

    C                    Am       Em          C   D    Em   D7    G
E---------------------|-----------0--------|--------------------|-----3--|*
A------------3--------|--0---------------2-|--3---5-------------|--------|*
D---2-----------------|--------------4-2-0-|--2---4----2----4---|--------|* 
G---------------------|------2-0--0--------|----0---2--0----2---|-0-0-0--|*
h---------3----3--1-0-|--1-0---------------|-------------0-----1|-0------|*
e---3-2-0----0--------|--------------------|--------------------|--------|*


            
            
Suggest correction
Creating personal tab
Creating personal tab
You can edit any tab online and save it as your Personal.

You can edit, replace or remove any tab part or add personal notes – all changes will be seen only by you.

Personal tabs can be accessed anytime from any device, even offline.
Learn more »
Give kudos to tab author, rate the tab!
1 2 3 4 5
comments
print report bad tab
2 comments total.
-1 reply
Phoenix5794 10 Dec 06, 2008 11:58 AM

First of all, I'm sorry to say, but your method of tabbing is very hard to read. From the top to the bottom of the tab, the chords should read: E,B,G,D,A,E in the former corresponding order. That is just the generic way of tabbing, although your method is very difficult to understand for most, the overall tab itself is written nearly correct, only a few flaws exist.

0 reply
|Guitarhead| 268 Dec 05, 2009 07:55 AM

Probably a good tab if only you knew how to write one. Like pheonix said, you got it the wrong way round!

guest
You may want to rate the tab now too:
select rating
Wanna post a correction for this tab? Suggest correction