Oops, an error
Loading. Please wait.

The Real Stuff chords

94 views 1 this week
no commentswrite comment
1 2 3 4 5
3 more votes to show rating
add to favorites
×
Save as Personal and add changes to this tab that will be seen only by you. Learn more ›
×
You can save this tab as Personal to edit and correct it or add notes. All changes will be seen only by you. Learn more »
launch autoscroll
font size
0
reset
transpose
0
reset
display chords
guitar tuner
edit
Autoscroll
slow
fast
+/-
esc
set tempo
stop
Author
Difficulty
Strumming
There is no strumming pattern for this song yet. and get +5 IQ
D  2x023x
A  x0222x
E  02210x


[Verse 1]

D A E D

D                    A
Hot and cold like an old hearth stone
E                     D
Not so skilled at the art of making friends
D                   A
Folding up when the pressure’s on
E                   D
Everyone knows when something’s going wrong


[Chorus]

    D
But you’ve got the real stuff
A
You’ve got the real stuff
E
Your stuff is real
     D                 A
Only you know how that feels


D
You’ve got the real stuff
A
You’ve got the real stuff
E
Your stuff is real
     D                 A                 
Only you know how that feels


e|------------------------------------------------------| |
B|-------3-------3---3p2-3---2-----------3-2------------| |
G|-------2-------2---2-2-2---2-----------2-2------------| |
D|---2-4-----2-4----------------------------------------| |
A|-----------------------------0--0-0-0------0--0-0-0---| |
E|------------------------------------------------------| |
                                                          | x2
e|---0---0---0---0---0-0--------------------------------| |
B|---0---0---0---0---0-0—---3---2-----------------------| |
G|---1---1---1---1---1-1----2---2---4---2-------4--2----| |
D|---2---2---2---2---2-2----0-------0---0----0----------| |
A|---2---2---2---2---2-2--------------------------------| |
E|---0---0---0---0---0-0--------------------------------| |


[Verse 2]

D                    A
Madder than you were ever wise
       E                          D
Like a newborn kitten that hasn’t opened up its eyes
D                   A
Folding up when the pressure’s on
      E                   D
Until everyone knows when something’s going wrong


[Chorus]

    D
But you’ve got the real stuff
A
You’ve got the real stuff
E
Your stuff is real
     D                 A
Only you know how that feels


D
You’ve got the real stuff
A
You’ve got the real stuff
E
Your stuff is real
     D                 A                 
Only you know how that feels


e|------------------------------------------------------| |
B|-------3-------3---3p2-3---2-----------3-2------------| |
G|-------2-------2---2-2-2---2-----------2-2------------| |
D|---2-4-----2-4----------------------------------------| |
A|-----------------------------0--0-0-0------0--0-0-0---| |
E|------------------------------------------------------| |
                                                          | x4
e|---0---0---0---0---0-0--------------------------------| |
B|---0---0---0---0---0-0—---3---2-----------------------| |
G|---1---1---1---1---1-1----2---2---4---2-------4--2----| |
D|---2---2---2---2---2-2----0-------0---0----0----------| |
A|---2---2---2---2---2-2--------------------------------| |
E|---0---0---0---0---0-0--------------------------------| |

End on A

            
            
Suggest correction
Creating personal tab
Creating personal tab
You can edit any tab online and save it as your Personal.

You can edit, replace or remove any tab part or add personal notes – all changes will be seen only by you.

Personal tabs can be accessed anytime from any device, even offline.
Learn more »
Give kudos to tab author, rate the tab!
1 2 3 4 5
comments
print report bad tab
guest
You may want to rate the tab now too:
select rating
Wanna post a correction for this tab? Suggest correction