Oops, an error
Loading. Please wait.

Time tab

1,472 views 9 this week
no commentswrite comment
1 2 3 4 5
1 last vote to show rating
add to favorites
×
Save as Personal and add changes to this tab that will be seen only by you. Learn more ›
×
You can save this tab as Personal to edit and correct it or add notes. All changes will be seen only by you. Learn more »
launch autoscroll
font size
0
reset
how to read this tab
guitar tuner
edit
Autoscroll
slow
fast
+/-
esc
set tempo
stop
Mikky Ekko - Time

Chords by Simon Kelly

No tabs of this yet, so this is my attempt at it. Sounds pretty close, but if you feel I've missed anything, 
let me know below.

No capo
Down one half-step (D# G# C# F# A# D#)


Chords Used:

      Em    G     D     Am    C
d#|---0-----3-----2-----0-----0---|
A#|---0-----0-----3-----1-----1---|
F#|---0-----0-----2-----2-----0---|
C#|---2-----0-----0-----2-----2---|
G#|---2-----2-----x-----0-----3---|
D#|---0-----3-----x-----x-----x---|


[Intro]

      Em              G               D               Am
d#|-------------------------3---------------2p0--------------------------------|
A#|---------0-----------------------------3-----3-----------1---0--------------|
F#|-----------------------0---0---------2---------2-------2---2---2-0----------|
C#|-------2---2-----------------------0-------------0---2----------------------|
G#|-----2-------2---2---2-------2---2-----------------0------------------------|
D#|---0-----------0---3-----------3--------------------------------------------|


[Verse 1]

      Em              G               D               Am
d#|-------------------------3---------------2---0------------------------------|
A#|---------0-----------------------------3---3---3---------1---0--------------|
F#|-----------------------0---0---------2-----------2-----2---2-----0----------|
C#|-------2---2-----------------------0-----------------2----------------------|
G#|-----2-------2---2---2-------2---2-----------------0------------------------|
D#|---0-----------0---3-----------3--------------------------------------------|

      Em              G               D               Am
d#|-------------------------3---------------2---0------------------------------|
A#|---------0-----------------------------3---3---3---------1---0--------------|
F#|-----------------------0---0---------2-----------2-----2---2---2-0----------|
C#|-------2---2-----------------------0-----------------2----------------------|
G#|-----2-------2---2---2-------2---2-----------------0------------------------|
D#|---0-----------0---3-----------3--------------------------------------------|

      Em              G               D               Am
d#|-------------------------3---------------2---0------------------------------|
A#|---------0-----------------------------3---3---3---------1---0--------------|
F#|-----------------------0---0---------2-----------2-----2---2---2-0----------|
C#|-------2---2-----------------------0-----------------2----------------------|
G#|-----2-------2-------2-------2---2-----------------0------------------------|
D#|---0-----------0-2-3-----------3--------------------------------------------|

      Em              G               D               Am
d#|-------------------------3---------------2---0------------------------------|
A#|---------0-----------------------------3---3---3---------1---0--------------|
F#|-----------------------0---0---------2-----------2-----2---2-----0----------|
C#|-------2---2-----------------------0-----------------2----------------------|
G#|-----2-------2---2---2-------2---2-----------------0------------------------|
D#|---0-----------0---3-----------3--------------------------------------------|


[Chorus]

    C    G       D        Am                                          )--------\
Hey Time doesn't love you anymore                                              |--- Palm muted
C       G          D                Am                                )--------/
But I-I-I I'm still knocking at your door
       C                G            D            Am        
Honey, we can run forever, if forever's what's in store
   C G D    Am
Oh, time to take me home


      C                   D
d#|----------------------------------------------------------------------------|
A#|---------5---------5--------7-----------------------------------------------|
F#|-------5---------5--------7-------------------------------------------------|
C#|-----5---------5--------7---------------------------------------------------|
G#|---3---------3------3/5-----------------------------------------------------|
D#|----------------------------------------------------------------------------|


[Verse 2]

      Em              G               D               Am
d#|-------------------------3---------------2---0------------------------------|
A#|---------0-----------------------------3---3---3---------1---0--------------|
F#|-----------------------0---0---------2-----------2-----2---2---2-0----------|
C#|-------2---2-----------------------0-----------------2----------------------|
G#|-----2-------2---2---2-------2---2-----------------0------------------------|
D#|---0-----------0---3-----------3--------------------------------------------|

      Em              G               D               Am
d#|-------------------------3---------------2---0-------------------0----------|
A#|---------0-----------------------------3---3---3---------1---3--------------|
F#|-----------------------0---0---------2-----------2-----2---2---2------------|
C#|-------2---2-----------------------0-----------------2----------------------|
G#|-----2-------2---2---2-------2---2-----------------0------------------------|
D#|---0-----------0---3-----------3--------------------------------------------|

      Em              G               D               Am
d#|-------------------------3---------------2---0-------------------0----------|
A#|---------0-----------------------------3---3---3---------1---0--------------|
F#|-----------------------0---0---------2-----------2-----2---2---2------------|
C#|-------2---2-----------------------0-----------------2----------------------|
G#|-----2-------2-------2-------2---2-----------------0------------------------|
D#|---0-----------0-2-3-----------3--------------------------------------------|

      Em              G             D               Am
d#|-------------------------3-------2-----2---0--------------------------------|
A#|---------0-------------------------3-----3---3---------1--------------------|
F#|-----------------------0---0---------2---------2-----2----------------------|
C#|-------2---2---------------------------------------2------------------------|
G#|-----2-------2---2---2-------2-------------------0--------------------------|
D#|---0-----------0---3-----------3--------------------------------------------|


[Chorus]

    C    G       D        Am                                          )--------\
'Cause Time doesn't love you anymore                                           |--- Palm Muted
C       G          D                Am                                )--------/
But I-I-I I'm still knocking at your door
       C                G            D            Am        
Honey, we can run forever, if forever's what's in store
   C G D    Am
Oh, time to take me home
C        G
ooh oooh oooh oooh oooh
D        Am
ooh oooh oooh oooh oooh
C        G
ooh oooh oooh oooh oooh
D        Am
ooh oooh oooh oooh oooh


[Bridge]

      C            Em           D           Am
d#|-----------------------------------2---0-------------------------------------|
A#|---------1------------0----------3---3---------1-----------------------------|
F#|-------0------------0----------2-------------2-------------------------------|
C#|-----2------2-----2------2---0-------------2---------------------------------|
G#|---3----------3-2----------2-------------0-----------------------------------|
D#|-----------------------------------------------------------------------------|

          C
d#|---------------------------------------------2h3p2---------------------------|
A#|-------------1---------------0-------------3---------------------------------|
F#|-----------0---0---0-------0---0---0-----2-----------------------------------|
C#|---------2-------2-------2-------2---2-0-------------------------------------|
G#|---0-2-3-------------3-2-----------------------------------------------------|
D#|-----------------------------------------------------------------------------|


[Chorus]

    C    G       D        Am                                           )--------\
'Cause Time doesn't love you anymore                                            |--- Palm Muted
C       G          D                Am                                 )--------/
But I-I-I I'm still knocking at your door
       C                G            D            Am        
Honey, we can run forever, if forever's what's in store
   C G D    Am
Oh, time to take me home
C        G
ooh oooh oooh oooh oooh
D        Am
ooh oooh oooh oooh oooh
C        G
ooh oooh oooh oooh oooh
D        Am
ooh oooh oooh oooh oooh
                C G D Am  
Let me hear you say,
                C G D Am     
let me hear you say


[Outro]

      C            Em           D                Am
d#|------------------------------------2h3p2------------------------------------|
A#|---------1-------------0----------3-------3---------1------------------------|
F#|-------0------------------------2-----------2-----2---2----------------------|
C#|-----2------2--------2--------0-----------------2----------------------------|
G#|---3----------32---2------2-------------------0------------------------------|
D#|-----------------0----------0------------------------------------------------|

d#|---------------------------------------2-2h3p2-0-----------0-----------------|
A#|-------------1------------0----------3-----------0-------1-1-----------------|
F#|-----------0-----------------------2-------------------2---2-----------------|
C#|---------2------2-------2--------0-------------------2-----2-----------------|
G#|---0-2-3----------32--2------2---------------------0-------0-----------------|
D#|--------------------0----------0---------------------------------------------|

            
            
Suggest correction
Creating personal tab
Creating personal tab
You can edit any tab online and save it as your Personal.

You can edit, replace or remove any tab part or add personal notes – all changes will be seen only by you.

Personal tabs can be accessed anytime from any device, even offline.
Learn more »
Give kudos to tab author, rate the tab!
1 2 3 4 5
comments
print report bad tab
guest
You may want to rate the tab now too:
select rating
Wanna post a correction for this tab? Suggest correction