Oops, an error
Loading. Please wait.

Doubleganger tab

235 views 6 this week
no commentswrite comment
1 2 3 4 5
2 more votes to show rating
add to favorites
×
Save as Personal and add changes to this tab that will be seen only by you. Learn more ›
×
You can save this tab as Personal to edit and correct it or add notes. All changes will be seen only by you. Learn more »
launch autoscroll
font size
0
reset
how to read this tab
guitar tuner
edit
Autoscroll
slow
fast
+/-
esc
set tempo
stop
About this tab version
This was tabbed from Alan C.'s video: https://www.youtube.com/watch?v=jmj41o37oc4 also added a hammer-on to 13th fret late in the intro because it was in the backing track Alan played over but not in the video itself. Was this info helpful? Yes No
Tabbed from Alan C.'s video: https://www.youtube.com/watch?v=jmj41o37oc4

[Intro]

e|------|-------|--------|
B|------|-------|--------|
G|------|-------|--------|
D|--4---|---6---|---8----|
A|--4---|---6---|---8----|
E|--2---|---4---|---6----| x3
0:01

e|------|-------|-------------------|
B|------|-------|-------------------|
G|--6---|---8---|---6--6--6--6--6---|
D|--6---|---8---|---6--6--6--6--6---|
A|--4---|---6---|---4--4--4--4--4---|
E|------|-------|-------------------|
0:09

e|--9----------|---------------|-----------------------------|------------------|
B|-----9---6---|-4--4---6---6--|-----------------------------|---------9--6-----|
G|-------------|---------------|--------6--8--6--8--6--8--6--|--8---------------|
D|-------------|---------------|--6--8-----------------------|------8-----------|
A|-------------|---------------|-----------------------------|------------------|
E|-------------|---------------|-----------------------------|------------------|
0:12

e|-----|-------------------|-----------------------|---------------------------|
B|-----|--------6-----9----|-----------6-----8-----|-----4--6b7--h13p6--4------|
G|--6--|--8--6-----6----6--|--6--8--6-----6-----6--|--6--------------------6---|
D|-----|-------------------|-----------------------|---------------------------|
A|-----|-------------------|-----------------------|---------------------------|
E|-----|-------------------|-----------------------|---------------------------|
0:18

e|--9----------|---------------|-----------------------------|------------------|
B|-----9---6---|-4--4---6---6--|-----------------------------|---------9--6-----|
G|-------------|---------------|--------6--8--6--8--6--8--6--|--8---------------|
D|-------------|---------------|--6--8-----------------------|------8-----------|
A|-------------|---------------|-----------------------------|------------------|
E|-------------|---------------|-----------------------------|------------------|
0:23
e|------------------|--------------|------------------------------------|
B|--11--9--11--/14--|--11--14--16--|--14--16--18b19br18--16--14--13--14-|
G|------------------|--------------|------------------------------------|
D|------------------|--------------|------------------------------------|
A|------------------|--------------|------------------------------------|
E|------------------|--------------|------------------------------------|
0:28

e|--16b17-------------|
B|--16b17--16--14~~---|
G|--------------------|
D|--------------------|
A|--------------------|
E|--------------------|
0:32

[Verse]
Palm mute E A and D strings
e|---------|------------|--------|------------|--------|------------|--6--6--4--6--4--------|
B|---------|------------|--------|------------|--------|------------|-----------------6-----|
G|---------|------------|--------|------------|--------|------------|--------------------6--|
D|---4--4--|--6--6---6--|--3--3--|--4--4---4--|--4--4--|--6--6---6--|-----------------------|
A|---4--4--|--6--6---6--|--3--3--|--4--4---4--|--4--4--|--6--6---6--|-----------------------|
E|---2--2--|--4--4---4--|--1--1--|--2--2---2--|--2--2--|--4--4---4--|-----------------------| x2
0:34

e|-----------------|------------------|
B|--6\5---6--6--6--|--6\5---6--6--6---|
G|--6\5---6--6--6--|--6\5---6--6--6---|
D|--6\5---6--6--6--|--6\5---6--6--6---|
A|-----------------|------------------|
E|-----------------|------------------| x3
0:45

e|------------------|---------------|
B|--6\5---6--6--6---|---6---6---6---|
G|--6\5---6--6--6---|---6---6---6---|
D|--6\5---6--6--6---|---6---6---6---|
A|------------------|---------------|
E|------------------|---------------|
0:52

[Pre-chorus]

e|--6--6--6--6--|
B|--8--9--8--9--|
G|--8--8--8--8--|
D|--------------|
A|--------------|
E|--------------| x7
0:55

e|--------------|
B|--------------|
G|--8--10--11---|
D|--x--x---x----|
A|--6--8---9----|
E|--------------|
1:04

[Chorus]

e|--------------------------------|---------------------------------|
B|--------------------------------|---------------------------------|
G|-----------------------6--6--6--|---------------------------------|
D|--4--4---6--6---8--8---6--6--6--|--4--4---6--6---8--8---11-11-11--|
A|--4--4---6--6---8--8---4--4--4--|--4--4---6--6---8--8---11-11-11--|
E|--2--2---4--4---6--6------------|--2--2---4--4---6--6---9--9--9---|
1:06

e|--------------------------------|-----------------------------|
B|--------------------------------|-----------------------------|
G|-----------------------6--6--6--|---------------6--8--10-11---|
D|--4--4---6--6---8--8---6--6--6--|--4--4---6--6--x--x--x--x----|
A|--4--4---6--6---8--8---4--4--4--|--4--4---6--6--4--6--8--9----|
E|--2--2---4--4---6--6------------|--2--2---4--4----------------|
1:11

e|--------------------------------|--------------------------------|
B|--------------------------------|--------------------------------|
G|-----------------------6--6--6--|-----------------------6--6--6--|
D|--4--4---6--6---8--8---6--6--6--|--4--4---6--6---8--8---6--6--6--|
A|--4--4---6--6---8--8---4--4--4--|--4--4---6--6---8--8---4--4--4--|
E|--2--2---4--4---6--6------------|--2--2---4--4---6--6------------|
1:17

e|------------------------------|
B|------------------------------|
G|--6---8---10--11--10--8---6---|
D|--x---x---x---x---x---x---x---|
A|--4---6---8---9---8---6---4---|
E|------------------------------|
1:22

[Solo]


e|------------|------------|--------------------------|
B|---------9--|---------9--|---------9--11--9---------|
G|--8--10-----|--8--10-----|--8--10------------10--8--|
D|------------|------------|--------------------------|
A|------------|------------|--------------------------|
E|------------|------------|--------------------------|
1:27

e|------------|------------|--------------------------|
B|--------9---|--------9---|---------9--11--9---------|
G|--6--8------|--6--8------|--6--8-------------11--8--|
D|------------|------------|--------------------------|
A|------------|------------|--------------------------|
E|------------|------------|--------------------------|
1:30

e|-----------------|--------------------------|
B|------9--11--13--|--14--16--18--19--18~~----|
G|--10-------------|--------------------------|
D|-----------------|--------------------------|
A|-----------------|--------------------------|
E|-----------------|--------------------------|
1:33

e|------------------------------|--13--16--16b18br16--13--|---------------------|
B|--16b18--16b18--16b18---16b18-|-------------------------|-16--14--16--14------|
G|------------------------------|-------------------------|----------------15---|
D|------------------------------|-------------------------|---------------------|
A|------------------------------|-------------------------|---------------------|
E|------------------------------|-------------------------|---------------------|
1:38

e|--------------------|-----------|-----------|---------------------------------|
B|--------------------|-----------|-----------|---------------------------------|
G|--10-/13-\8-/10-\6--|--------6--|--------6--|-------6--8--8b9br8--6-h8--------|
D|--------------------|--6-h8-----|--6-h8-----|--6-h8---------------------------|
A|--------------------|-----------|-----------|---------------------------------|
E|--------------------|-----------|-----------|---------------------------------|
1:41

e|--/9---/11---/16---/18---/16~~----|
B|----------------------------------|
G|----------------------------------|
D|----------------------------------|
A|----------------------------------|
E|----------------------------------|
1:46

e|------------------|------------------|------------------|-------------------|
B|------------------|------------------|------------------|-------------------|
G|------------------|------------------|------------------|--3--3---6--6--6---|
D|--4--4---6--6--6--|--3--3---4--4--4--|--4--4---6--6--6--|--3--3---6--6--6---|
A|--4--4---6--6--6--|--3--3---4--4--4--|--4--4---6--6--6--|--1--1---4--4--4---|
E|--2--2---4--4--4--|--1--1---2--2--2--|--2--2---4--4--4--|-------------------| x3
1:55

[Verse]

e|--------------|--------------|--------------|------|
B|--------------|--------------|--------------|------|
G|--------------|--------------|--------------|------|
D|--------------|--------------|--------------|------|
A|--4--4--4--4--|--6--6--6--6--|--8--8--8--8--|--11--|
E|--2--2--2--2--|--4--4--4--4--|--6--6--6--6--|--9---| x3
2:32

e|------9--|
B|--/9-----|
G|--/9-----|
D|---------|
A|---------|
E|---------|
2:41

e|--------------|--------------|--------------|------|
B|--------------|--------------|--------------|------|
G|--------------|--------------|--------------|------|
D|--------------|--------------|--------------|------|
A|--4--4--4--4--|--6--6--6--6--|--8--8--8--8--|--11--|
E|--2--2--2--2--|--4--4--4--4--|--6--6--6--6--|--9---| x3
2:43

e|--------------------------------|--------------------------------|
B|--------------------------------|--------------------------------|
G|-----------------------7--7--7--|-----------------------7--7--7--|
D|--5--5---7--7---9--9---7--7--7--|--5--5---7--7---9--9---7--7--7--|
A|--5--5---7--7---9--9---5--5--5--|--5--5---7--7---9--9---5--5--5--|
E|--3--3---5--5---7--7------------|--3--3---5--5---7--7------------|
2:54

e|--------------------------------|-----------------------------|
B|--------------------------------|-----------------------------|
G|-----------------------7--7--7--|----------------7--9--11-7---|
D|--5--5---7--7---9--9---7--7--7--|--5--5---7--7---x--x--x--x---|
A|--5--5---7--7---9--9---5--5--5--|--5--5---7--7---5--7--9--5---|
E|--3--3---5--5---7--7------------|--3--3---5--5----------------|
2:59

e|--------------------------------|--------------------------------|
B|--------------------------------|--------------------------------|
G|-----------------------7--7--7--|-----------------------7--7--7--|
D|--5--5---7--7---9--9---7--7--7--|--5--5---7--7---9--9---7--7--7--|
A|--5--5---7--7---9--9---5--5--5--|--5--5---7--7---9--9---5--5--5--|
E|--3--3---5--5---7--7------------|--3--3---5--5---7--7------------|
3:05

e|-----------------------------|--------------------|
B|-----------------------------|--------------------|
G|-/7---9---11--12--11--9---7--|--7--7--7--7--7-----|
D|--x---x---x---x---x---x---x--|--x--x--x--x--x-----|
A|-/5---7---9---10--9---7---5--|--5--5--5--5--5-----|
E|-----------------------------|--------------------|
3:10

[Outro]

e|------------------------|------------------|----------------------------|
B|-5--5---x--5---x--5--5--|--x--5---x--5--5--|--5-------------------------|
G|-5--5---x--5---x--5--5--|--x--5---x--5--5--|--5---------5--7b8br7--5~~--|
D|-5--5---x--5---x--5--5--|--x--5---x--5--5--|--5---5--7------------------|
A|------------------------|------------------|----------------------------|
E|------------------------|------------------|----------------------------|
3:17

e|------------------------|------------------|------------------------------|
B|-5--5---x--5---x--5--5--|--x--5---x--5--5--|------------------------------|
G|-5--5---x--5---x--5--5--|--x--5---x--5--5--|--------------5--7b8br7--5~~--|
D|-5--5---x--5---x--5--5--|--x--5---x--5--5--|--------5--7------------------|
A|------------------------|------------------|--7--5------------------------|
E|------------------------|------------------|------------------------------|
3:22

e|------------------------|------------------|----------------------------|
B|-5--5---x--5---x--5--5--|--x--5---x--5--5--|--5-------------------------|
G|-5--5---x--5---x--5--5--|--x--5---x--5--5--|--5---------5--7b8br7--5~~--|
D|-5--5---x--5---x--5--5--|--x--5---x--5--5--|--5---5--7------------------|
A|------------------------|------------------|----------------------------|
E|------------------------|------------------|----------------------------|
3:28

e|------------------------|-------------------------|----------------------------------|
B|-5--5---x--5---x--5--5--|--12-12--11-11--9--9--9--|--11-11-11--9--9---7--7--/19--19--|
G|-5--5---x--5---x--5--5--|--x--x---x--x---x--x--x--|--x--x--x---x--x---x--x---x---x---|
D|-5--5---x--5---x--5--5--|--10-10--9--9---7--7--7--|--9--9--9---7--7---5--5--/17--17--|
A|------------------------|-------------------------|----------------------------------|
E|------------------------|-------------------------|----------------------------------|
3:33



************************************

| x   Dead note
| h   Hammer-on
| b   Bend
| br  Bend release
| /   Slide up
| \   Slide down
| ~   Vibrato

************************************

            
            
Suggest correction
Creating personal tab
Creating personal tab
You can edit any tab online and save it as your Personal.

You can edit, replace or remove any tab part or add personal notes – all changes will be seen only by you.

Personal tabs can be accessed anytime from any device, even offline.
Learn more »
Give kudos to tab author, rate the tab!
1 2 3 4 5
comments
print report bad tab
guest
You may want to rate the tab now too:
select rating
Wanna post a correction for this tab? Suggest correction