Oops, an error
Loading. Please wait.

Ievan Polkka Acoustic tab

version 1
version 1

Whole song

  • Playable fingerstyle arrangement of the song in text.

Interactive

2,761 views 30 this week
no commentswrite comment
1 2 3 4 5
3 more votes to show rating
add to favorites
×
Save as Personal and add changes to this tab that will be seen only by you. Learn more ›
×
You can save this tab as Personal to edit and correct it or add notes. All changes will be seen only by you. Learn more »
launch autoscroll
font size
0
reset
how to read this tab
guitar tuner
edit
Autoscroll
slow
fast
+/-
esc
set tempo
stop
About this tab version
Playable fingerstyle arrangement of the song in text. Was this info helpful? Yes No
Ievan Polka (fingerstyle)
Hatsune Miku
Arranged By John Lee
Capo 5


    E  E  E  E  E  E  E  E     E  E  E  E  E  E  E  E     E  E  E  E  E  E  E  E   
e|-----0-----0-----0-----0--|-----0-----0-----0-----0--|-----0-----0-----0-----0--|
B|-----1-----1-----1-----1--|-----1-----1-----1-----1--|-----1-----1-----1-----1--|
G|--------------------------|--------------------------|--------------------------|
D|--------------------------|--------------------------|--------------------------|
A|--0-----------0-----------|--0-----------0-----------|--0-----------0-----------|
E|--------0-----------0--3--|--------0-----------0--3--|--------0-----------0--3--|


    E  E  E  E  Q.     S S      E  E  E  S S S S S S E  S S    E  E  E  E  E  E  E  S S  
e|-----0-----0--0----------||-------------------------------|---------------------------|
B|-----1-----1--1----------||--------------0-1-1----------1-|--0-----------0------------|
G|-----------------------2-||*-----2--2----------2-2-2--2---|-----0--0--0-----2--2--2-2-|
D|-------------------------||*--2---------------------------|---------------------------|
A|--0-----------0----------||---0------------0--------------|--------------0------------|
E|--------0----------------||---------0--3-----------0--3---|--0-----3--0--------0--3---|


    E  E  E  S S E  S S S S S S    S S S S S S E  E  E  E  S S    E  E  E  E  E  S S S S S S  
e|------------------------------|--0-0-0-----------------------|--0--0-----------------------|
B|-------------0-1----------1-1-|--------3-1-1-0--1------------|--------3--1--0------------0-|
G|-----2--2---------2-2---2-----|--------------------2--2--2-2-|-----------------0-0---0-0---|
D|--2---------------------------|------------------------------|-----------------------------|
A|--0------------0--------------|-----------------0------------|--0--------------------------|
E|--------0--3----------0---3---|--0-------3---0--------0--3---|--------0--3--0------0---3---|


                                                               _______________________________
                                                              | 1.
    S S S S S S S S E  S S E  S S    E  E  E  E  E  E  E  S S    S S S S S S S S E  S E.  E     
e|--------------------------------|--0--0---------------------|-------------------------------||
B|--3-3-3-3-1-1-0-0-1-------------|--------3--1--0----------0-|--3-3-3-3-1-1-0-0-1------------||
G|---------------------2-2----2-2-|-----------------0--0--0---|------------------2--2-2---2--*||
D|--------------------------------|---------------------------|------------------------------*||
A|------------------0-------------|--0------------------------|------------------0------------||
E|--0-------3---0----------0--3---|--------0--3--0-----0--3---|--0-------3---0----------------||

   _____________________________
  | 2.
    S S S S S S S S E  S Q    S    Q    E  E  Q    E  E     Q    E  E  Q    E  E   
e|------------------------------|------------------------|------------------------|
B|--3-3-3-3-1-1-0-0-1-----------|------------------------|------------------------|
G|------------------2--2-2------|------------------------|------------------------|
D|------------------------------|------------------------|------------------------|
A|------------------0-----------|--0----------0----------|-------------0----------|
E|--0-------3---0---------------|-------0--3-------0--3--|--0----3--0-------0--3--|


    Q    E  E  Q    E  E     Q    E  E  Q    E  E     Q    E  E  Q    E  E   
e|------------------------|------------------------|------------------------|
B|------------------------|------------------------|------------------------|
G|------------------------|------------------------|------------------------|
D|------------------------|------------------------|------------------------|
A|--0----------0----------|-------------0----------|--0---------------------|
E|-------0--3-------0--3--|--0----3--0-------0--3--|-------0--3--0----0--3--|


    Q    E  E  Q    E  E     Q    E  E  Q    E  E     Q    E  E  E  Q     
e|------------------------|------------------------|---------------------|
B|------------------------|------------------------|---------------------|
G|------------------------|------------------------|---------------------|
D|------------------------|------------------------|---------------------|
A|-------------0----------|--0---------------------|-------------0-------|
E|--0----3--0-------0--3--|-------0--3--0----0--3--|--0----3--0----------|


    E  E  E  E  E  E  E  E     E  E  E  E  E  E  E  E     E  E  E  E  E  E  E  E   
e|-----0-----0-----0-----0--|-----0-----0-----0-----0--|-----0-----0-----0-----0--|
B|-----1-----1-----1-----1--|-----0-----0-----1-----1--|-----1-----1-----1-----1--|
G|--------------------------|--------------------------|--------------------------|
D|--------------------------|--------------------------|--------------------------|
A|--0-----------0-----------|--------------0-----------|--0-----------0-----------|
E|--------0--3--------0--3--|--0-----3--0--------0--3--|--------0--3--------0--3--|


    E  E  E  E  E  E  E  E     E  E  E  E  E  E  E  E     E  E  E  E  E  E  E  E   
e|-----0-----0-----0-----0--|-----0-----0-----0-----0--|-----0-----0-----0-----0--|
B|-----0-----0-----1-----1--|-----1-----1-----1-----1--|-----0-----0-----1-----1--|
G|--------------------------|--------------------------|--------------------------|
D|--------------------------|--------------------------|--------------------------|
A|--------------0-----------|--0-----------------------|--------------0-----------|
E|--0-----3--0--------0--3--|--------0--3--0-----0--3--|--0-----3--0--------0--3--|


    E  E  E  E  E  E  E  E     E  E  E  E  E  Q.        E  E  E  S S S S S S E  S S  
e|-----0-----0-----0-----0--|-----0-----0--0---------|------------------------------|
B|-----1-----1-----1-----1--|-----0-----0--1---------|-------------0-1-1----------1-|
G|--------------------------|------------------------|-----2--2----------2-2-2--2---|
D|--------------------------|------------------------|--2---------------------------|
A|--0-----------------------|--------------0---------|--0------------0--------------|
E|--------0--3--0-----0--3--|--0-----3--0------------|--------0--3-----------0--3---|


    E  E  E  E  E  E  E  S S    E  E  E  S S E  S S S S S S    S S S S S S E  E  E  E  S S  
e|---------------------------|------------------------------|--0-0-0-----------------------|
B|--0-----------0------------|-------------0-1----------1-1-|--------3-1-1-0--1------------|
G|-----0--0--0-----2--2--2-2-|-----2--2---------2-2---2-----|--------------------2--2--2-2-|
D|---------------------------|--2---------------------------|------------------------------|
A|--------------0------------|--0------------0--------------|-----------------0------------|
E|--0-----3--0--------0--3---|--------0--3----------0---3---|--0-------3---0--------0--3---|


    E  E  E  E  E  S S S S S S    E  E  E  E  E  S S S S S S    E  E  E  E  E  E  E  E   
e|--0--0-----------------------|--0--0-----------------------|--0--0--------0--0--------|
B|--------3--1--0------------0-|--------3--1--0------------0-|--------3--1--------3--1--|
G|-----------------0-0---0-0---|-----------------0-0---0-0---|--------------------------|
D|-----------------------------|-----------------------------|--------------------------|
A|--0--------------------------|--0--------------------------|--0-----------0-----------|
E|--------0--3--0------0---3---|--------0--3--0------0---3---|--------0--3--------0--3--|


    E  E  E  E  E  E  S S S S      E  E  E  S S S S S S E  S S    E  E  E  E  E  E  E  S S  
e|--0--0--0--0--0--0--0-0-0---||-------------------------------|---------------------------|
B|--------------------------0-||--------------0-1-1----------1-|--0-----------0------------|
G|----------------------------||*-----2--2----------2-2-2--2---|-----0--0--0-----2--2--2-2-|
D|----------------------------||*--2---------------------------|---------------------------|
A|--0-----0-----0--0--0-0-0---||---0------------0--------------|--------------0------------|
E|----------------------------||---------0--3-----------0--3---|--0-----3--0--------0--3---|


    E  E  E  S S E  S S S S S S    S S S S S S E  E  E  E  S S    E  E  E  E  E  S S S S S S  
e|------------------------------|--0-0-0-----------------------|--0--0-----------------------|
B|-------------0-1----------1-1-|--------3-1-1-0--1------------|--------3--1--0------------0-|
G|-----2--2---------2-2---2-----|--------------------2--2--2-2-|-----------------0-0---0-0---|
D|--2---------------------------|------------------------------|-----------------------------|
A|--0------------0--------------|-----------------0------------|--0--------------------------|
E|--------0--3----------0---3---|--0-------3---0--------0--3---|--------0--3--0------0---3---|

                                                               _______________________________
                                                              | 1.
    S S S S S S S S E  S S E  S S    E  E  E  E  E  E  E  S S    S S S S S S S S E  S E.  E     
e|--------------------------------|--0--0---------------------|-------------------------------||
B|--3-3-3-3-1-1-0-0-1-------------|--------3--1--0----------0-|--3-3-3-3-1-1-0-0-1------------||
G|---------------------2-2----2-2-|-----------------0--0--0---|------------------2--2-2---2--*||
D|--------------------------------|---------------------------|------------------------------*||
A|------------------0-------------|--0------------------------|------------------0------------||
E|--0-------3---0----------0--3---|--------0--3--0-----0--3---|--0-------3---0----------------||

   _____________________________
  | 2.
    S S S S S S S S E  S Q    S    E  E  E  E  E  E  E  E     E  E  E  E  E  E  E  E   
e|------------------------------|-----0-----0-----0-----0--|-----0-----0-----0-----0--|
B|--3-3-3-3-1-1-0-0-1-----------|-----1-----1-----1-----1--|-----0-----0-----1-----1--|
G|------------------2--2-2------|--------------------------|--------------------------|
D|------------------------------|--------------------------|--------------------------|
A|------------------0-----------|--0-----------0-----------|--------------0-----------|
E|--0-------3---0---------------|--------0--3--------0--3--|--0-----3--0--------0--3--|


    E  E  E  E  E  E  E  E     E  E  E  E  E  E  E  E     E  E  E  E  E  E  E  E   
e|-----0-----0-----0-----0--|-----0-----0-----0-----0--|-----0-----0-----0-----0--|
B|-----1-----1-----1-----1--|-----0-----0-----1-----1--|-----1-----1-----1-----1--|
G|--------------------------|--------------------------|--------------------------|
D|--------------------------|--------------------------|--------------------------|
A|--0-----------0-----------|--------------0-----------|--0-----------------------|
E|--------0--3--------0--3--|--0-----3--0--------0--3--|--------0--3--0-----0--3--|


    E  E  E  E  E  E  E  E     E  E  E  E  E  E  E  E     E  E  E  E  E  Q.               
e|-----0-----0-----0-----0--|-----0-----0-----0-----0--|-----0-----0--0---------|-------||
B|-----0-----0-----1-----1--|-----1-----1-----1-----1--|-----0-----0--1---------|-------||
G|--------------------------|--------------------------|------------------------|-------||
D|--------------------------|--------------------------|------------------------|-------||
A|--------------0-----------|--0-----------------------|--------------0---------|-------||
E|--0-----3--0--------0--3--|--------0--3--0-----0--3--|--0-----3--0------------|-------||


Duration Legend
---------------
W - whole
H - half
Q - quarter
E - 8th
S - 16th
. - note dotted


************************************

| * reprise

************************************

            
            
Suggest correction
Creating personal tab
Creating personal tab
You can edit any tab online and save it as your Personal.

You can edit, replace or remove any tab part or add personal notes – all changes will be seen only by you.

Personal tabs can be accessed anytime from any device, even offline.
Learn more »
Give kudos to tab author, rate the tab!
1 2 3 4 5
comments
print report bad tab
guest
You may want to rate the tab now too:
select rating
Wanna post a correction for this tab? Suggest correction