Oops, an error
Loading. Please wait.

Head Out tab

1,219 views 57 this week
3 commentsread comments
1 2 3 4 5
x 7
add to favorites
×
Save as Personal and add changes to this tab that will be seen only by you. Learn more ›
×
You can save this tab as Personal to edit and correct it or add notes. All changes will be seen only by you. Learn more »
launch autoscroll
font size
0
reset
how to read this tab
guitar tuner
edit
Autoscroll
slow
fast
+/-
esc
set tempo
stop
Author
Difficulty
About this tab version
Accurate note for note transcription with chord names. Was this info helpful? Yes No
Mild High Club: Head Out 
Tabbed by Trystan H

[Intro]
   G♯m6add♯5   Am7        Bdim7        Am9          G♯m6add♯5   Am7      Bdim7         Am7
e|-----------|---------|----------4--|--7---5-----|-----------|--------|-------------|-------5--|
B|--5-----3--|--5------|--6---8------|--5------8--|--5-----3--|--5-----|--6--8---6h8-|--5-------|
G|--4--------|--5------|--7----------|--5---------|--4--------|--5-----|--7----------|--5-------| 
D|--3--------|--5------|--6----------|--5---------|--3--------|--5-----|--6----------|--5-------|
A|--x--------|--x------|--x----------|--x---------|--x--------|--x-----|--x----------|--x-------|
E|--4--------|--5------|--7----------|--5---------|--4--------|--5-----|--7----------|--5-------|

   G♯m6add♯5   Am7        Bdim7        Am9          G♯m6add♯5   Am7      Bdim7         Am7
e|-----------|---------|----------4--|--7---5-----|-----------|--------|-------------|-------5--|
B|--5-----3--|--5------|--6---8------|--5------8--|--5-----3--|--5-----|--6--8---6h8-|----5-----|
G|--4--------|--5------|--7----------|--5---------|--4--------|--5-----|--7----------|----5-----| 
D|--3--------|--5------|--6----------|--5---------|--3--------|--5-----|--6----------|----5-----|
A|--x--------|--x------|--x----------|--x---------|--x--------|--x-----|--x----------|----------|
E|--4--------|--5------|--7----------|--5---------|--4--------|--5-----|--7----------|--5-------|

[Verse 1]
   G♯m6add♯5   Am7        Bdim7        Am9          G♯m6add♯5   Am7      Bdim7         Am7
e|-----------|---------|----------4--|--7---5-----|-----------|--------|-------------|-------5--|
B|--5-----3--|--5------|--6---8------|--5------8--|--5-----3--|--5-----|--6--8---6h8-|--5-------|
G|--4--------|--5------|--7----------|--5---------|--4--------|--5-----|--7----------|--5-------| 
D|--3--------|--5------|--6----------|--5---------|--3--------|--5-----|--6----------|--5-------|
A|--x--------|--x------|--x----------|--x---------|--x--------|--x-----|--x----------|--x-------|
E|--4--------|--5------|--7----------|--5---------|--4--------|--5-----|--7----------|--5-------|

   G♯m6add♯5   Am7        Bdim7        Am9          G♯m6add♯5   Am7      Bdim7         
e|-----------|---------|----------4--|--7---5-----|-----------|--------|---------------|
B|--5-----3--|--5------|--6---8------|--5------8--|--5-----3--|--5-----|--6----8----9--|
G|--4--------|--5------|--7----------|--5---------|--4--------|--5-----|--7------------| 
D|--3--------|--5------|--6----------|--5---------|--3--------|--5-----|--6------------|
A|--x--------|--x------|--x----------|--x---------|--x--------|--x-----|--x------------|
E|--4--------|--5------|--7----------|--5---------|--4--------|--5-----|--7------------|

[Chorus 1]
    A            C13        Fmaj9      E7♯9        A              C13         Fmaj9     E7♯9
e|--5-----5--|-----------|----------|-----------|-------5------|-----------|----------|----------|
B|--5--------|--10---10--|--8----8--|--8---6h8--|--5--------5--|--10---10--|--8----8--|--8----6--|
G|--6--------|---9-------|--9-------|--7--------|--6-----------|--9--------|--9-------|--7-------|
A|--7--------|---8-------|--7-------|--6--------|--7-----------|--8--------|--7-------|--6-------|
D|--0--------|---X-------|--8-------|--7--------|--0-----------|--x--------|--8-------|--7-------|
E|-----------|---8-------|----------|-----------|--------------|--8--------|----------|----------|

[Verse 2]
   G♯m6add♯5   Am7        Bdim7        Am9          G♯m6add♯5   Am7      Bdim7         Am7
e|-----------|---------|----------4--|--7---5-----|-----------|--------|-------------|-------5--|
B|--5-----3--|--5------|--6---8------|--5------8--|--5-----3--|--5-----|--6--8---6h8-|--5-------|
G|--4--------|--5------|--7----------|--5---------|--4--------|--5-----|--7----------|--5-------| 
D|--3--------|--5------|--6----------|--5---------|--3--------|--5-----|--6----------|--5-------|
A|--x--------|--x------|--x----------|--x---------|--x--------|--x-----|--x----------|--x-------|
E|--4--------|--5------|--7----------|--5---------|--4--------|--5-----|--7----------|--5-------|

   G♯m6add♯5   Am7        Bdim7        Am9          G♯m6add♯5   Am7      Bdim7         
e|-----------|---------|----------4--|--7---5-----|-----------|--------|---------------|
B|--5-----3--|--5------|--6---8------|--5------8--|--5-----3--|--5-----|--6----8----9--|
G|--4--------|--5------|--7----------|--5---------|--4--------|--5-----|--7------------| 
D|--3--------|--5------|--6----------|--5---------|--3--------|--5-----|--6------------|
A|--x--------|--x------|--x----------|--x---------|--x--------|--x-----|--x------------|
E|--4--------|--5------|--7----------|--5---------|--4--------|--5-----|--7------------|

[Chorus 2]
   C69         D♯9       G♯maj7       G7♯9
e|----------|----------|------------|--6--------|
B|--3-------|--6-------|--4---------|--6--------|
G|--2-------|--6-------|--5---------|--4--------| x5
A|--2-------|--5-------|--5---------|--5--------|
D|--3-------|--6-------|--x---------|--x--------|
E|----------|----------|--4---------|--3--------|


[Solo]
   Bm6add♯5    Cm7       Ddim7         Cm9          Bm6add♯5    Cm7      Ddim7          Cm7
e|-----------|---------|----------7--|-10---8-----|-----------|--------|--------------|----------|
B|--8-----6--|--8------|--9---11-----|--8-----11--|--8-----6--|--8-----|--9--11--9-11-|--8-------|
G|--7--------|--8------|-10----------|--8---------|--7--------|--8-----|-10-----------|--8-------| x2
D|--6--------|--8------|--9----------|--8---------|--6--------|--8-----|--9-----------|--8-------|
A|--x--------|--x------|--x----------|--x---------|--x--------|--x-----|--x-----------|--x-------|
E|--7--------|--8------|-10----------|--8---------|--7--------|--8-----|-10-----------|--8-------|

[Outro]
   Bm6add♯5    Cm7       Ddim7         Cm9          Bm6add♯5    Cm7      Ddim7          Cm7
e|-----------|---------|----------7--|-10---8-----|-----------|--------|--------------|--8-------||
B|--8-----6--|--8------|--9---11-----|--8-----11--|--8-----6--|--8-----|--9----11--12-|--8-------||
G|--7--------|--8------|-10----------|--8---------|--7--------|--8-----|-10-----------|--8-------||
D|--6--------|--8------|--9----------|--8---------|--6--------|--8-----|--9-----------|--8-------||
A|--x--------|--x------|--x----------|--x---------|--x--------|--x-----|--x-----------|--x-------||
E|--7--------|--8------|-10----------|--8---------|--7--------|--8-----|-10-----------|--8-------||

***********************************
| h   Hammer-on
| x   Dead note
***********************************



            
            
Suggest correction
Creating personal tab
Creating personal tab
You can edit any tab online and save it as your Personal.

You can edit, replace or remove any tab part or add personal notes – all changes will be seen only by you.

Personal tabs can be accessed anytime from any device, even offline.
Learn more »
comments
print report bad tab
3 comments total.
0 reply
matt.declercq96 10 Sep 20, 2017 07:16 PM

Excellent tab cheers 👍

0 reply
FoozRule 340 Sep 21, 2017 07:21 AM

Cheers mate! :)

0 reply
FoozRule 340 Sep 21, 2017 08:16 AM

Cheers mate! :)

guest
You may want to rate the tab now too:
select rating
Wanna post a correction for this tab? Suggest correction