Oops, an error
Loading. Please wait.

Better Left Invisible tab

58 views 1 this week
no commentswrite comment
1 2 3 4 5
3 more votes to show rating
add to favorites
×
Save as Personal and add changes to this tab that will be seen only by you. Learn more ›
×
You can save this tab as Personal to edit and correct it or add notes. All changes will be seen only by you. Learn more »
launch autoscroll
font size
0
reset
how to read this tab
guitar tuner
edit
Autoscroll
slow
fast
+/-
esc
set tempo
stop
Hope this is accurate took a while to work everything out by ear and 
using transcribe software. Pls leave suggestions and rate thanks!

[tone: fuzz, spring reverb, tremolo, vibrato]

[Intro] 
(18 secs)
(volume swells fade in an out)
e|-------------------|
B|-------------------|
G|-------------------|
D|-6-6-6-6-6-6-6-6---|
A|-------------------|
E|-------------------|

(30 secs)
e|-----|----|-----|----|-------|
B|--6~-|-4--|-3~--|-2--|-------|
G|--6~-|-4--|-3~--|-2--|-------|
D|-----|----|-----|----|-/6----|
A|-----|----|-----|----|-------|
E|-----|----|-----|----|-------|

[Verse 1] 
(51 secs)
e|-----|-------|----|----------|
B|--6~-|-x-x-x-|-4~-|----------|
G|--6~-|-x-x-x-|-4~-|-/6-------| (x2)
D|-----|-------|----|----------| 
A|-----|-------|----|----------|
E|-----|-------|----|----------|

[Chorus] 
(1 min 2 secs)
e|----------|---------|------|
B|----------|---------|------|
G|----------|---------|------|
D|----------|---------|------|
A|--6--5--4-|-5--6--5-|-4--2-|
E|----------|---------|------|

[Verse 2]
(No guitar played)

[Chorus 2]
e|-----|----------|---------|------|-----|-----|-----|
B|--6~-|----------|---------|------|-6~--|-4~--|-3~--|
G|--6~-|----------|---------|------|-6~--|-4~--|-3~--|
D|-----|----------|---------|------|-----|-----|-----|
A|-----|--6--5--4-|-5--6--5-|-4--2-|-----|-----|-----|
E|-----|----------|---------|------|-----|-----|-----|

[Solo] 
(1 min 45 secs     Vibrato used fast here)
e|--------------------------------20~/21~/22~--------|
B|------------------------18--20---------------------|
G|--------------18---17~-----------------------------|
D|-10~-11~-19~----17---------------------------------|
A|---------------------------------------------------|
E|---------------------------------------------------|

(1 min 50 secs)
e|---------------------------------------------------|
B|---------------------21----------------------------|
G|-----------------18~-------------------------------|
D|-------7/13~---------------------------------------|
A|-11\/----------------------------------------------|
E|---------------------------------------------------|

(1 min 59 secs)
e|------------------------------21~------------------|
B|------------------18/19/20~------------------------|
G|-------------18~-----------------------------------|
D|-10~-11~-19~---------------------------------------|
A|---------------------------------------------------|
E|---------------------------------------------------|

(2 min 10 secs)
e|---------------------------------------------------|
B|---------------------------------------------------|
G|---------------------------------------------------|
D|-------11~--13\/-----------------------------------|
A|-16\/--------------16~-----------------------------|
E|---------------------------------------------------|

[Verse 3] 
(2 min 15 secs)
e|----|-------|----|-------|----|------|
B|----|-x-x-x-|-6~-|-x-x-x-|-4~-|------|
G|-6--|-x-x-x-|-6~-|-x-x-x-|-4~-|-/6---|
D|----|-------|----|-------|----|------| 
A|----|-------|----|-------|----|------|
E|----|-------|----|-------|----|------|

e|----|-------|----|-------|----|------|
B|----|-x-x-x-|-6~-|-x-x-x-|-4~-|------|
G|----|-x-x-x-|-6~-|-x-x-x-|-4~-|------| 
D|----|-------|----|-------|----|------| 
A|----|-------|----|-------|----|------|
E|----|-------|----|-------|----|------|

[Chorus 3] 
(2 min 30 secs)
e|---|----------|---------|---------|---------|
B|---|----------|---------|---------|---------|
G|---|----------|---------|---------|---------|
D|---|----------|---------|---------|---------|
A|---|--6--5--4-|-5--6--5-|-4--5--6-|-5--4--2-|
E|---|----------|---------|---------|---------|

e|-------|----|-------|----|-------|----|-------|----|
B|-x-x-x-|-6~-|-x-x-x-|-4~-|-x-x-x-|-3~-|-x-x-x-|-2~-|
G|-x-x-x-|-6~-|-x-x-x-|-4~-|-x-x-x-|-3~-|-x-x-x-|-2~-| 
D|-------|----|-------|----|-------|----|-------|----| 
A|-------|----|-------|----|-------|----|-------|----|
E|-------|----|-------|----|-------|----|-------|----|

[Outro] 
(2 min 53 secs. plays until fade out)
- rapid up-down struming 

   v ^ v ^ v
e|---------------------|
B|-6-6-6-6-6---6p4---4-|
G|-6-6-6-6-6-------6---|
D|---------------------|
A|---------------------|
E|---------------------|


************************************

| \/  Tremolo bar note dive
| p   pull off
| v   down stroke
| ^   up stroke
| x   muted strum
| /   Slide up
| ~   Vibrato

************************************

            
            
Suggest correction
Creating personal tab
Creating personal tab
You can edit any tab online and save it as your Personal.

You can edit, replace or remove any tab part or add personal notes – all changes will be seen only by you.

Personal tabs can be accessed anytime from any device, even offline.
Learn more »
Give kudos to tab author, rate the tab!
1 2 3 4 5
comments
print report bad tab
guest
You may want to rate the tab now too:
select rating
Wanna post a correction for this tab? Suggest correction