Oops, an error
Loading. Please wait.

Dont Forget Who You Are bass

2,050 views 1 this week
no commentswrite comment
1 2 3 4 5
1 last vote to show rating
add to favorites
×
Save as Personal and add changes to this tab that will be seen only by you. Learn more ›
×
You can save this tab as Personal to edit and correct it or add notes. All changes will be seen only by you. Learn more »
launch autoscroll
font size
0
reset
guitar tuner
edit
Autoscroll
slow
fast
+/-
esc
set tempo
stop
-----------------------------------------------------------------------------
                     Don't Forget Who You Are - Miles Kane
-----------------------------------------------------------------------------

Tabbed by: Country Bass
E-mail: aaron.white8@Education.nsw.gov.au


Heard this song when watching Hard Rock Calling 2013, Couldn't keep myself from tabbing it out
Very catchy, Very fun to play, Enjoy


Tuning: Standard

Intro

G|-------------------------------------------------------------------------|
D|-------------------------------------------------------------------------|
A|--5--7--3----------------------------------------------------------------|
E|-----------3-3-3-3-3-5-4-3--3-3-3-3-3-5-4-3--3-3-3-3-3-5-4-3--3-3-3-3-3--|

Verse

G|---------------------------------------------------------------------|
D|---------------------------------------------------------------------|
A|------------------------------------3-3-3-3-3-3-3-3-1-1-1-1-1--------|
E|--3-3-3-3-3-5-4-3--3-3-3-3-3-5-4-3----------------------------1-2-3--|

G|------------------------------|
D|------------------------------|
A|------------------------------|
E|--3-3-3-3-3-5-4-3--3-3-3-3-3--|

Chorus

G|-------------------------------------------------------------------|
D|-------------------------------------------------------------------|
A|--6-6-6-6-6-6-6-6-----------------8-8-8-8-8-8-8-8-8-8-8-8-8-8-8-8--| x2
E|------------------6-6-6-6-6-6-6-6----------------------------------|

G|-------------------------------------------------------------------|
D|-------------------------------------------------------------------|
A|--6-6-6-6-6-6-6-6-----------------8-8-8-8-8-8-8-8-6-6-6-6-6-6-6-6--|
E|------------------6-6-6-6-6-6-6-6----------------------------------|

Interlude

G|---------------------------------------|
D|---------------------------------------|
A|--5--7--3------------------------------|
E|-----------3-3-3-3-3-4-5-3--3-3-3-3-3--|

Bridge

G|-----------------------------------------------|
D|-----------------------------------------------|
A|-----------------------------------------------|
E|--3-4-5--3-3-3-3-3-3-3-3-12-12-12-12-12-4-2-3--|

G|-------------------------------------------------------------------|
D|-------------------------------------------------------------------|
A|----------------------------------8-8-8-8-8-8-8-8-8-8-8-8-8-8-8-8--|
E|--6-6-6-6-6-6-6-6-8-8-8-8-8-8-8-8----------------------------------|

No Bass during Chorus after Bridge

Outro 

G|-------------------------------------------------------------------|
D|-------------------------------------------------------------------|
A|--6-6-6-6-6-6-6-6-----------------8-8-8-8-8-8-8-8-8-8-8-8-8-8-8-8--| x3
E|------------------6-6-6-6-6-6-6-6----------------------------------|

G|--------------------------------------|
D|--------------------------------------|
A|--6-6-6-6-6-6-6-6-----------------8~--|
E|------------------6-6-6-6-6-6-6-6-----|


Playing Order

Intro
Verse x2
Chorus
Interlude
Verse 
Chorus
Bridge
Outro



Have Fun


| /  slide up
| \  slide down
| h  hammer-on
| p  pull-off
| ~  vibrato
| +  harmonic
| x  Mute note
=============================================================================

            
            
Suggest correction
Creating personal tab
Creating personal tab
You can edit any tab online and save it as your Personal.

You can edit, replace or remove any tab part or add personal notes – all changes will be seen only by you.

Personal tabs can be accessed anytime from any device, even offline.
Learn more »
Give kudos to tab author, rate the tab!
1 2 3 4 5
comments
print report bad tab
guest
You may want to rate the tab now too:
select rating
Wanna post a correction for this tab? Suggest correction