Oops, an error
Loading. Please wait.

See You Again tab

version 2
version 2

Whole song

Interactive

7,325 views 1 this week
2 commentsread comments
1 2 3 4 5
x 3
add to favorites
×
Save as Personal and add changes to this tab that will be seen only by you. Learn more ›
×
You can save this tab as Personal to edit and correct it or add notes. All changes will be seen only by you. Learn more »
launch autoscroll
font size
0
reset
how to read this tab
guitar tuner
edit
Autoscroll
slow
fast
+/-
esc
set tempo
stop
Ok so I just figured this out by ear, it may not be 100% correct but it works with the
and the original song. Also I didn't mark where to palm mute but I think you do it in the
if you want to. If you plan on singing with this tab, you should print out the lyrics 
the lyrics here are only a guide. I've lined up the lyrics with the tab. Enjoy!

0 = open
... = more lyrics in between

Verse 1
E--------------------------------------------------------------------|
B--------------------------------------------------------------------|
G--------------------------------------------------------------------|
D--------------------------------------------------------------------|
A-00000000000000000000000000000000-0000000000000000-3333333333333333-|
E--------------------------------------------------------------------|

  I've got my sights set on you...                  never be tame...

E--------------------------------------------------------------------|
B--------------------------------------------------------------------|
G--------------------------------------------------------------------|
D-2222222222222222---------------------------------------------------|
A------------------0000000000000000-33333333--------0000000000000000-|
E--------------------------------------------0000000-----------------|


  I knew you...     when you...      now I...wait...again

**Verse 2 is the same thing as Verse 1 but with different lyrics.

Chorus
E-------------------------------------------------------|
B-------------------------------------------------------|
G-------------------------------------------------------|
D-55555555----------------------55555555----------------|
A-33333333-------55555555-------33333333-------55555555-|
E----------------33333333----------------------33333333-|

  The last...    I just kept... I st-st...     Asked me...

**For the next 4 lines (until she says "Miley") repeat the above part.

E-------------------------------------------------------|
B-------------------------------------------------------|
G-------------------------------------------------------|
D-22222222-55555555----------22222222-55555555----------|
A-00000000-33333333-55555555-00000000-33333333-22222222-|
E-------------------33333333-------------------00000000-|

  The next...I will...My heart...then...I I can't...wait...

Transition
E-------------------|
B-------------------|
G-------------------|
D-------------------|
A-00000000-00000000-|
E-------------------|

**This is in between the ending of the 1st chorus and the beginning of the third verse.

**Verse 3 is the same as Verse 1 and 2
**Then play chorus again with transition afterwards

E---------------------------------|
B---------------------------------|
G---------------------------------|
D---------------------------------|
A-3-2---0-3-2---0-3-2---0-3-2---0-|
E-----3-------3-------3-------3---|

  I've got my sights set on you and I'm ready to aim

**Play chorus normally except for first 4 lines, which you play like this:

E
B
G
D-5--------------------------------------5---------------------------|
A-3------------------5-------------------3-----------------5-------5-|
E--------------------3-------------------------------------3-------3-|

  The last time...   I just kept...      I st-st...        Asked me...

**Then continue chorus normally :)

***Hope this helps!***

            
            
Suggest correction
Creating personal tab
Creating personal tab
You can edit any tab online and save it as your Personal.

You can edit, replace or remove any tab part or add personal notes – all changes will be seen only by you.

Personal tabs can be accessed anytime from any device, even offline.
Learn more »
Give kudos to tab author, rate the tab!
1 2 3 4 5
comments
print report bad tab
2 comments total.
0 reply
~Melody~ 168 Apr 04, 2008 01:54 PM

i have seen better choruses for this song... its not all correct, but ok. just a suggestion, in the begining, you can start it like this to make it sound more like he song-

e-----------------
B-----------------
G-----------------
D-----------------
A-----------------
E--0/5------------

just slide up to the A.

0 reply
crazychimp77 52 May 19, 2008 01:56 PM

this is pretty good thanks for the tab!

guest
Wanna post a correction for this tab? Suggest correction