Oops, an error
Loading. Please wait.

Swear Jar Again tab

1,096 views 3 this week
no commentswrite comment
1 2 3 4 5
x 6
add to favorites
×
Save as Personal and add changes to this tab that will be seen only by you. Learn more ›
×
You can save this tab as Personal to edit and correct it or add notes. All changes will be seen only by you. Learn more »
launch autoscroll
font size
0
reset
how to read this tab
guitar tuner
edit
Autoscroll
slow
fast
+/-
esc
set tempo
stop
-------------------------------------------------------------------------------
                             Swear Jar (again) - Milk Teeth
-------------------------------------------------------------------------------

Tuning:Drop D

Intro:
(Guitar 1)
e|------------------------0--------------------------------------------------|
B|----------------------0-0-----0--------------------------------------------|
G|----------------------0-------0-0------------------------------------------|
D|---------------------------------------------------------------------------|
A|5-5-5-5-5-5-5-5/7-2-2-----0-0----------------------------------------------|
E|5-5-5-5-5-5-5-5/7-2-2-----0-0----------------------------------------------|

e|------------------------0--------------------------------------------------|
B|----------------------0-0-----0-0------------------------------------------|
G|----------------------0-------0--------------------------------------------|
D|---------------------------------------------------------------------------|
A|5-5-5-5-5-5-5-5/7-2-2-----0-0----------------------------------------------|
E|5-5-5-5-5-5-5-5/7-2-2-----0-0----------------------------------------------|

e|------------------------0-------0------------------------------------------|
B|----------------------0-0-----0--------------------------------------------|
G|----------------------0-------0--------------------------------------------|
D|---------------------------------------------------------------------------|
A|5-5-5-5-5-5-5-5/7-2-2-----0-0----------------------------------------------|
E|5-5-5-5-5-5-5-5/7-2-2-----0-0----------------------------------------------|

e|---------------------------------------------------------------------------|
B|---------------------------------------------------------------------------|
G|---------------------------------------------------------------------------|
D|---------------------------------------------------------------------------|
A|9-9-9--2-2-5-7--------------9-7--------------------------------------------|
E|9-9-9--2-2-5-7--------------9-7--------------------------------------------|

Verse: 

e|------------------------0--------------------------------------------------|
B|----------------------0-0-----0-0------------------------------------------|
G|----------------------0-------0--------------------------------------------|
D|---------------------------------------------------------------------------|
A|5-5-5-5-5-5-5-5/7-2-2-----0-0----------------------------------------------|
E|5-5-5-5-5-5-5-5/7-2-2-----0-0----------------------------------------------|

e|------------------------0-------0------------------------------------------|
B|----------------------0-0-----0--------------------------------------------|
G|----------------------0-------0--------------------------------------------|
D|---------------------------------------------------------------------------|
A|5-5-5-5-5-5-5-5/7-2-2-----0-0----------------------------------------------|
E|5-5-5-5-5-5-5-5/7-2-2-----0-0----------------------------------------------|

e|------------------------0-------0------------------------------------------|
B|----------------------0-0-----0--------------------------------------------|
G|----------------------0-------0--------------------------------------------|
D|---------------------------------------------------------------------------|
A|5-5-5-5-5-5-5-5/7-2-2-----0-0----------------------------------------------|
E|5-5-5-5-5-5-5-5/7-2-2-----0-0----------------------------------------------|

e|------------------------0-------0------------------------------------------|
B|----------------------0-0-----0--------------------------------------------|
G|----------------------0-------0--------------------------------------------|
D|---------------------------------------------------------------------------|
A|5-5-5-5-5-5-5-5/7-2-2-----0-0----------------------------------------------|
E|5-5-5-5-5-5-5-5/7-2-2-----0-0----------------------------------------------|

Guitar 2 at 0:42

e|---------------------------------------------------------------------------|
B|---------------------------------------------------------------------------|
G|-0-0-4-0---4-0-4-0-0-2-0---2-0-2-0-0-4-0---4-0-4-0-0-2-0---2-0-0-----------|
D|---------------------------------------------------------------------------|
A|---------------------------------------------------------------------------|
E|---------------------------------------------------------------------------|

e|---------------------------------------------------------------------------|
B|---------------------------------------------------------------------------|
G|0-0-0---0-0-0-0--7-7-7-7-4-4-4b--------------------------------------------|
D|---------------------------------------------------------------------------|
A|---------------------------------------------------------------------------|
E|---------------------------------------------------------------------------|

Guitar 1 plays this underneath:

e|---------------------------------------------------------------------------|
B|---------------------------------------------------------------------------|
G|---------------------------------------------------------------------------|
D|---------------------------------------------------------------------------|
A|5-5-5-5-5-5-5-5/7-2-2-2-2-2-2-2-2------------------------------------------|
E|5-5-5-5-5-5-5-5/7-2-2-2-2-2-2-2-2------------------------------------------|

e|---------------------------------------------------------------------------|
B|---------------------------------------------------------------------------|
G|---------------------------------------------------------------------------|
D|---------------------------------------------------------------------------|
A|5-5-5-5-5-5-5-5/7-2-2-2-2-2-2-2-2------------------------------------------|
E|5-5-5-5-5-5-5-5/7-2-2-2-2-2-2-2-2------------------------------------------|

e|---------------------------------------------------------------------------|
B|---------------------------------------------------------------------------|
G|---------------------------------------------------------------------------|
D|---------------------------------------------------------------------------|
A|0--0--0-0-0-0-0-0-0-0-0-0-0-0----------------------------------------------|
E|0--0--0-0-0-0-0-0-0-0-0-0-0-0----------------------------------------------|

Both guitars:

e|---------------------------------------------------------------------------|
B|---------------------------------------------------------------------------|
G|---------------------------------------------------------------------------|
D|---------------------------------------------------------------------------|
A|5-5-5-5-5-5-5-5/7-2-2-2-2-0-0-0-0------------------------------------------|
E|5-5-5-5-5-5-5-5/7-2-2-2-2-0-0-0-0------------------------------------------|

e|---------------------------------------------------------------------------|
B|---------------------------------------------------------------------------|
G|---------------------------------------------------------------------------|
D|---------------------------------------------------------------------------|
A|5-5-5-5-5-5-5-5/7-2-2-2-2-0-0-0-0------------------------------------------|
E|5-5-5-5-5-5-5-5/7-2-2-2-2-0-0-0-0------------------------------------------|

e|---------------------------------------------------------------------------|
B|---------------------------------------------------------------------------|
G|---------------------------------------------------------------------------|
D|---------------------------------------------------------------------------|
A|5-5-5-5-5-5-5-5/7-2-2-2-2-0-0-0-0------------------------------------------|
E|5-5-5-5-5-5-5-5/7-2-2-2-2-0-0-0-0------------------------------------------|

e|---------------------------------------------------------------------------|
B|---------------------------------------------------------------------------|
G|---------------------------------------------------------------------------|
D|---------------------------------------------------------------------------|
A|5-5-5-5-5-5-5-5/7-2-2-2-2-0-0-0-0------------------------------------------|
E|5-5-5-5-5-5-5-5/7-2-2-2-2-0-0-0-0------------------------------------------|

Guitar 2 at 1:20

e|---------------------------------------------------------------------------|
B|---------------------------------------------------------------------------|
G|-0-0-4-0---4-0-4-0-0-2-0---2-0-2-0-0-4-0---4-0-4-0-0-2-0---2-0-0-----------|
D|---------------------------------------------------------------------------|
A|---------------------------------------------------------------------------|
E|---------------------------------------------------------------------------|

e|---------------------------------------------------------------------------|
B|-----------------------------------------------------5-0-------------------|
G|0-0-0---0-0-0-0--7-7-7-7-4-4-4-4-4-4br-0-2-------2-4-----4br-4-------------|
D|-------------------------------------------0-2-4---------------------------|
A|---------------------------------------------------------------------------|
E|---------------------------------------------------------------------------|

e|--------------------------5-7-7br--10br-7----------------------------------|
B|------------------3-5-5br-----------------8-5-3-1h3p1h3p1h3p1--------------|
G|4br-0-2-------2-4----------------------------------------------0-2-0-------|
D|--------0-2-4--------------------------------------------------------5p0---|
A|---------------------------------------------------------------------------|
E|---------------------------------------------------------------------------|

Guitar 1 plays this underneath:

e|---------------------------------------------------------------------------|
B|---------------------------------------------------------------------------|
G|---------------------------------------------------------------------------|
D|---------------------------------------------------------------------------|
A|5-5-5-5-5-5-5-5/7-2-2-2-2-2-2-2-2------------------------------------------|
E|5-5-5-5-5-5-5-5/7-2-2-2-2-2-2-2-2------------------------------------------|

e|---------------------------------------------------------------------------|
B|---------------------------------------------------------------------------|
G|---------------------------------------------------------------------------|
D|---------------------------------------------------------------------------|
A|5-5-5-5-5-5-5-5/7-2-2-2-2-2-2-2-2------------------------------------------|
E|5-5-5-5-5-5-5-5/7-2-2-2-2-2-2-2-2------------------------------------------|

e|---------------------------------------------------------------------------|
B|---------------------------------------------------------------------------|
G|---------------------------------------------------------------------------|
D|---------------------------------------------------------------------------|
A|0--0--0-0-0-0-0-0-0-0-0-0-0-0----------------------------------------------|
E|0--0--0-0-0-0-0-0-0-0-0-0-0-0----------------------------------------------|

e|---------------------------------------------------------------------------|
B|---------------------------------------------------------------------------|
G|---------------------------------------------------------------------------|
D|---------------------------------------------------------------------------|
A|5-5-5-5-5-5-5-5/7-2-2-2-2-0-0-0-0------------------------------------------|
E|5-5-5-5-5-5-5-5/7-2-2-2-2-0-0-0-0------------------------------------------|

e|---------------------------------------------------------------------------|
B|---------------------------------------------------------------------------|
G|---------------------------------------------------------------------------|
D|---------------------------------------------------------------------------|
A|5-5-5-5-5-5-5-5/7-2-2-2-2-0-0-0-0------------------------------------------|
E|5-5-5-5-5-5-5-5/7-2-2-2-2-0-0-0-0------------------------------------------|

e|---------------------------------------------------------------------------|
B|---------------------------------------------------------------------------|
G|---------------------------------------------------------------------------|
D|---------------------------------------------------------------------------|
A|5-5-5-5-5-5-5-5/7-2-2-2-2-0-0-0-0------------------------------------------|
E|5-5-5-5-5-5-5-5/7-2-2-2-2-0-0-0-0------------------------------------------|

e|---------------------------------------------------------------------------|
B|---------------------------------------------------------------------------|
G|---------------------------------------------------------------------------|
D|---------------------------------------------------------------------------|
A|5-5-5-5-5-5-5-5/7-2-2-2-2-0-0-0-0------------------------------------------|
E|5-5-5-5-5-5-5-5/7-2-2-2-2-0-0-0-0------------------------------------------|

Both guitars at 1:57

e|---------------------------------------------------------------------------|
B|---------------------------------------------------------------------------|
G|---------------------------------------------------------------------------|
D|---------------------------------------------------------------------------|
A|5-5-5-5-5-5-5-5/7-2-2-2-2-0-0-0-0------------------------------------------|
E|5-5-5-5-5-5-5-5/7-2-2-2-2-0-0-0-0------------------------------------------|

e|---------------------------------------------------------------------------|
B|---------------------------------------------------------------------------|
G|---------------------------------------------------------------------------|
D|---------------------------------------------------------------------------|
A|5-5-5-5-5-5-5-5/7-2-2-2-2-0-0-0-0------------------------------------------|
E|5-5-5-5-5-5-5-5/7-2-2-2-2-0-0-0-0------------------------------------------|

e|---------------------------------------------------------------------------|
B|---------------------------------------------------------------------------|
G|---------------------------------------------------------------------------|
D|---------------------------------------------------------------------------|
A|5-5-5-5-5-5-5-5/7-2-2-2-2-0-0-0-0------------------------------------------|
E|5-5-5-5-5-5-5-5/7-2-2-2-2-0-0-0-0------------------------------------------|

e|---------------------------------------------------------------------------|
B|---------------------------------------------------------------------------|
G|---------------------------------------------------------------------------|
D|---------------------------------------------------------------------------|
A|5-5-5-5-5-5-5-5/7-2-2-2-2-0-0-0-0------------------------------------------|
E|5-5-5-5-5-5-5-5/7-2-2-2-2-0-0-0-0------------------------------------------|

Guitar 2 at 2:18

e|---------------------------------------------------------------------------|
B|---------------------------------------------------------------------------|
G|-0-0-4-0---4-0-4-0-0-2-0---2-0-2-0-0-4-0---4-0-4-0-0-2-0---2-0-0-----------|
D|---------------------------------------------------------------------------|
A|---------------------------------------------------------------------------|
E|---------------------------------------------------------------------------|

e|---------------------------------------------------------------------------|
B|---------------------------------------------------------------------------|
G|0-0-0---0-0-0-0--7-7-7-7-4-4-4b--------------------------------------------|
D|---------------------------------------------------------------------------|
A|---------------------------------------------------------------------------|
E|---------------------------------------------------------------------------|

Guitar 1 underneath:

e|---------------------------------------------------------------------------|
B|---------------------------------------------------------------------------|
G|---------------------------------------------------------------------------|
D|---------------------------------------------------------------------------|
A|5-5-5-5-5-5-5-5/7-2-2-2-2-2-2-2-2------------------------------------------|
E|5-5-5-5-5-5-5-5/7-2-2-2-2-2-2-2-2------------------------------------------|

e|---------------------------------------------------------------------------|
B|---------------------------------------------------------------------------|
G|---------------------------------------------------------------------------|
D|---------------------------------------------------------------------------|
A|5-5-5-5-5-5-5-5/7-2-2-2-2-2-2-2-2------------------------------------------|
E|5-5-5-5-5-5-5-5/7-2-2-2-2-2-2-2-2------------------------------------------|

e|---------------------------------------------------------------------------|
B|---------------------------------------------------------------------------|
G|---------------------------------------------------------------------------|
D|---------------------------------------------------------------------------|
A|0--0--0-0-0-0-0-0-0-0-0-0-0-0----------------------------------------------|
E|0--0--0-0-0-0-0-0-0-0-0-0-0-0----------------------------------------------|

Guitar 1 while guitar 2 sustains the B bend:

e|------------------------0--------------------------------------------------|
B|----------------------0-0-----0--------------------------------------------|
G|----------------------0-------0-0------------------------------------------|
D|---------------------------------------------------------------------------|
A|5-5-5-5-5-5-5-5/7-2-2-----0-0----------------------------------------------|
E|5-5-5-5-5-5-5-5/7-2-2-----0-0----------------------------------------------|

e|------------------------0--------------------------------------------------|
B|----------------------0-0--------------------------------------------------|
G|----------------------0----------------------------------------------------|
D|---------------------------------------------------------------------------|
A|5-5-5-5-5-5-5-5/7-2-2------------------------------------------------------|
E|5-5-5-5-5-5-5-5/7-2-2------------------------------------------------------|

End on:

e|---------------------------------------------------------------------------|
B|--3------------------------------------------------------------------------|
G|--2------------------------------------------------------------------------|
D|--0------------------------------------------------------------------------|
A|--0------------------------------------------------------------------------|
E|--0------------------------------------------------------------------------|


************************************

| /   slide up
| \   slide down
| h   hammer-on
| p   pull-off
| ~   vibrato
| +   harmonic
| x   Mute note
| b   Bend
| pb  Pre-bend
| br  Bend release
| pbr Pre-bend release
| brb Bend release bend

************************************

            
            
Suggest correction
Creating personal tab
Creating personal tab
You can edit any tab online and save it as your Personal.

You can edit, replace or remove any tab part or add personal notes – all changes will be seen only by you.

Personal tabs can be accessed anytime from any device, even offline.
Learn more »
comments
print report bad tab
guest
You may want to rate the tab now too:
select rating
Wanna post a correction for this tab? Suggest correction